» » »

Motorhead - Killed By Death Tabs

Artists:  A B C D E F G H I J K L M N O P Q R S T U V W X Y Z # 

Killed By Death Tabs

(ver. 1) Click to play this song!
Motorhead
 Rating:
4/5 (4 votes)

 Killed By Death lessons Tabs too difficult? Try these video lessons and learn fast
 
                Motorhead- KILLED BY DEATH

In the no remorse album, this song is played in the standard 
tuning, but when the play it live, the play it tuned down to Eb

e|-----------------|
B|-----------------|
G|--------------5--|
D|--------7--9--5--|
A|--3--7--5--7-----|
E|--1--5-----------|
    F  A  D  E  C

-=INTRO=-
AFDE x2

Intro Solo
    A					     F
e|--20-17-20-17-20-17-19-15-17-15^~-\8-10/11\10-8-10~---8-10-----------|
B|-----------------------------------------------------------8-8h10~-\-|
G|---------------------------------------------------------------------|
D|---------------------------------------------------------------------|
A|---------------------------------------------------------------------|
E|---------------------------------------------------------------------|

                   D
e|---------------------------------------------------------|
B|---------------------------------------------------------|
G|-/4-5-7^--7-5-4-7~----5---------------------------7-9-5~-|
D|------------------------7-10-7-7-10-7-10-7-7-10-7--------|
A|---------------------------------------------------------|
E|---------------------------------------------------------|

           
       E  
e|--------------------------------------|
B|--------------------------------|
G|-7-5-7^--------------7~-\-|
D|------(hold bend)---------------------|
A|--------------------------------------|
E|--------------------------------------|

I'll put it like this, so this way it's easier for you...and for me

--------------Verse1-------------
A                       C
If you squeeze my lizard
A                       C
I'll put my snake on you
A                       C
I'm a romantic adventure
A                    C
And I'm a reptile too

---------Pre chorus-----------
F
But it don't make no difference
D                      E
'cos I ain't gonna be, easy, easy
E
the only time I'm easy's when I'm

--------------=CHORUS=---------------------
A
Killed by death
F
Killed by death
D
Killed by death
E
Killed by death

-----------------=VERSE2=---------------------------
I'm a lone wolf ligger
But I ain't no pretty boy
I'm a backbone shiver
and I'm a bundle of joy

-=PRECHORUS=-

-=CHORUS=-

-=CHORUS=-

-=SOLO=-
AFDE x2

-=BRIDGE=-
Same as chorus but with palm muting.

-=BRIDGE=-

-=CHORUS=-
Repeat to end.

enjoy
            
Submit corrections


        Killed By Death lessons Hard to play? Try these video lessons and learn fast Killed By Death lessons
        
↑ Back to top | Tablatures and chords for acoustic guitar and electric guitar, ukulele, drums are parodies/interpretations of the original songs. You may use it for private study, scholarship, research or language learning purposes only