» » »

Motorhead - Rock Out Bass

Artists:  A B C D E F G H I J K L M N O P Q R S T U V W X Y Z # 

Rock Out Bass

(ver. 1) Click to play this song!
Motorhead
 Rating:
4/5 (4 votes)

 Rock Out lessons Tabs too difficult? Try these video lessons and learn fast
 
                Intro Part 1
G----------------------------------------|
D----------------------------------------|
A---7-7--7-7-7-7-7-----------------------|
E----------------------------------------|

Intro Part 2: guitar kicks in:
G----------------------------------------|
D----------------------------------------|
A---7-7--7-7-7-7-7-5~~-------------------|
E----------------------------------------|

Intro Part 3
G----------------------------------------|
D------------------X7--------------------|
A---7-7-7-7-7-7-7------5-5-5-5-----------|
E----------------------------------------|

Verse 1: Repeat 2X
G----------------------------------------|
D----------------------------------------|
A---7-7-7-7-7-7-7-7-7-7-7-7-7-7-7-7-7-7--|
E----------------------------------------|

G----------------------------------------|
D----------------------------------------|
A---10-10-10-10-5-5-5-5-7-7-7-7-7-7-7----|
E----------------------------------------|

Bridge:
G----------------------------------------|
D----------------------------------------|
A----------------------------------------|
E---5-5-5-5-5-5-5-5-5-5-7-9--------------|

G----------------------------------------|
D----------------------------------------|
A---7-7-7-7-7-7-7-7-5-5-5-5-5-5-5-5-5-5--|
E----------------------------------------|

G----------------------------------------|
D----------------------------------------|
A----------------------------------------|
E---5-5-5-5-5-5-5-5-5-5-7-9--------------|

G-----------------------------------------|
D-----------------------------------------|
A---------------------------2-3--4--5--6--|
E---9--9--7-------------------------------|

Chorus: Repeat 2X
G----------------------------------------|
D----------------------------------------| 3x
A---7-7-7-7--3--5------------------------|
E----------------------------------------|

G----------------------------------------|
D----------------------------------------|
A---2-2-2-2-2-2-2------------------------|
E----------------------------------------|

Repeat the whole song

End
G---4-4-4-4-4-4-4-4-4-4-4-4-4-4-4-4-4-4-4-4-4--9-------------|
D---4-4-4-4-4-4-4-4-4-4-4-4-4-4-4-4-4-4-4-4-4--9-------------|Hold this note!
A---2-2-2-2-2-2-2-2-2-2-2-2-2-2-2-2-2-2-2-2-2--7-------------|
E------------------------------------------------------------|
            
Submit corrections


        Rock Out lessons Hard to play? Try these video lessons and learn fast Rock Out lessons
        
↑ Back to top | Tablatures and chords for acoustic guitar and electric guitar, ukulele, drums are parodies/interpretations of the original songs. You may use it for private study, scholarship, research or language learning purposes only