» » »

Motorhead - King Of Kings Tabs

Artists:  A B C D E F G H I J K L M N O P Q R S T U V W X Y Z # 

King Of Kings Tabs

(ver. 3) Click to play this song!
Motorhead
 Rating:
4/5 (4 votes)

 King Of Kings lessons Tabs too difficult? Try these video lessons and learn fast
 
                Tuning:D#A#D#G#B#E#


e|-------------------------------------------------------------------------------|
B|-------------------------------------------------------------------------------|
G|-------------------------------------------------------------------------------|
D|-------------------------------------------------------------------------------|
A|0--0-0----0-0--0-0--3-0-3--0-0-0-0--8-8-8-8-10-10-10-10--3-0-6-5-3-------------|
D|0--0-0----0-0--0-0--3-0-3--0-0-0-0--8-8-8-8-10-10-10-10--3-0-6-5-3----------\--|

e|-------------------------------------------------------------------------|
B|-------------------------------------------------------------------------|
G|-------------------------------------------------------------------------|
D|-------------------------------------------------------------------------|
A|3-0-6-5--8-8-8-8-10-10-10-10--0-0-0-0-0-0-0-0-2-3-3-3-3-3-3-10-10-10-10--|
D|3-0-6-5--8-8-8-8-10-10-10-10--0-0-0-0-0-0-0-0-2-3-3-3-3-3-3-10-10-10-10--|

e|---------------------------------------------------------------------------------------------------------|
B|---------------------------------------------------------------------------------------------------------|
G|---------------------------------------------------------------------------------------------------------|
D|---------------------------------------------------------------------------------------------------------|
A|10-10-10-10-5-5-5-5-5-5-5-5--3--0-0-2-3-x-x-x-x-x-x-3-5--0-0-2-3-----------------------------------------|
D|10-10-10-10-5-5-5-5-5-5-5-5--3--0-0-2-3-x-x-x-x-x-x-3-5--0-0-2-3-x-x-x-|                              ~--|

e|-----------------------------------------------------------------------------|
B|-----------------------------------------------------------------------------|
G|-----------------------------------------------------------------------------|
D|-----------------------------------------------------------------------------|
A|------3-5---8-8-8-8-10-10-10-10--3-0-6-5-3-3-0-6-5--8-8-8-8-10-10-10-10------|
D|x-x-x-3-5---8-8-8-8-10-10-10-10--3-0-6-5-3-3-0-6-5--8-8-8-8-10-10-10-10------|
            thats all of the song i know so far

| /  slide up
| \  slide down
| h  hammer-on
| p  pull-off
| ~  vibrato
| +  harmonic
| x  Mute note
            
Submit corrections


        King Of Kings lessons Hard to play? Try these video lessons and learn fast King Of Kings lessons
        
↑ Back to top | Tablatures and chords for acoustic guitar and electric guitar, ukulele, drums are parodies/interpretations of the original songs. You may use it for private study, scholarship, research or language learning purposes only