» » »

Motorhead - Going To Brazil Bass

Artists:  A B C D E F G H I J K L M N O P Q R S T U V W X Y Z # 

Going To Brazil Bass

(ver. 2) Click to play this song!
Motorhead
 Rating:
4/5 (4 votes)
                
Very easy song... Usually the Motorhead songs are tuned 
half step down, but that's not necessary. 
this is on regular tuning

G ------------------------------------.--------------
D ------------------------------------.--------------
A -6-4-6--6-4-6-6-6--6-4-6--6-4-6-6-6-.--------------  
E ------------------------------------.--4-4-4-4-4--- 
                                     (1st tone change 0:06s)

G ------------------------------------.--------------
D ------------------------------------.--------------
A -6-4-6--6-4-6-6-6--6-4-6--6-4-6-6-6-.--------------  
E ------------------------------------.--6-6-6-6-6--- 
                                     (2nd tone change 0:12s)

And just repeat the whole thing over and over... even during  the guitar solo
This is the only tab for this song in the whole world! Brazil!

If you have any suggestions, comments, questions, 
or ICQ me at 68411677

I can speak English, Portuguese and (a little) Spanish
Thank you
            
Submit corrections

↑ Back to top | Tablatures and chords for acoustic guitar and electric guitar, ukulele, drums are parodies/interpretations of the original songs. You may use it for private study, scholarship, research or language learning purposes only