» » »

Motorhead - Dead Men Tell No Tales Tabs

Artists:  A B C D E F G H I J K L M N O P Q R S T U V W X Y Z # 

Dead Men Tell No Tales Tabs

(ver. 1) Click to play this song!
Motorhead
 Rating:
4/5 (4 votes)

 Dead Men Tell No Tales lessons Tabs too difficult? Try these video lessons and learn fast
 
                PROPS GO TO: Rhydian Beynon-Davies

Dead Men Tell No Tales-----Motorhead
this tab is only an indication as to how to play the song. I have tabbed it myself and so there might be some mistakes
this is a more simplistic version of the song- after all, the easier it is to play, the quicker u can play it.
the solo after the second verse is not included in this version. If you feel that you need it just mail me.

Intro & 
E|------------------------------|
B|------------------------------|
G|---7--6--6-7-9---7--6-7-9-|
D|---7--6--6-7-9---7--6-7-9-|
A|0-----------------------------|
E|------------------------------|

1st Bridge
E|--------------|
B|--------------|
G|10h9h8-10-|
D|--------------|
A|--------------|
E|--------------|

1st part of verse riff
E|-----------------------------------|
B|-----------------------------------|
G|-----7-6-7---7-6-7----7-6-7-9-|
D|0-0-7-6-7-0-7-6-7-0-7-6-7-9-|
A|-----------------------------------|
E|-----------------------------------|

2nd part of verse Riff
E|--------------------------------------------------------------------------------------------------------------------|
B|--------------------------------------------------------------------------------------------------------------------|
G|--------------------------------------------------------------------------------------------------------------------|
D|--------------------------------------------------------------------------------------------------------------------|
A|8-8-8--8-8-8-8-8-8-8-8-8-8-8--8-8-8-8-8-8-8-8\6-6-6--6-6-6-6-6-6-6-6-6-6-6--6-6-6-6-6-6-6-6\4-|
E|6-6-6--6-6-6-6-6-6-6-6-6-6-6--6-6-6-6-6-6-6-6\4-4-4--4-4-4-4-4-4-4-4-4-4-4--4-4-4-4-4-4-4-4\2-|

Bridge2
E|---------------------------------------|
B|---------------------------------------|
G|9-8-7-6-7-6-5-6-7-5-9--8-7-6h9-|
D|---------------------------------------|
A|--------------------------------------|
E|--------------------------------------|
Order of play:
4* Intro Riff
1* 1st Bridge
2* 1st p o verse Riff
1* 2nd p o verse Riff
2* Bridge2
2* 1st p o verse Riff
1* 2nd p o verse Riff

2* 1st p o verse Riff
1* 2nd p o verse Riff
3* Intro Riff
            
Submit corrections


        Dead Men Tell No Tales lessons Hard to play? Try these video lessons and learn fast Dead Men Tell No Tales lessons
        
↑ Back to top | Tablatures and chords for acoustic guitar and electric guitar, ukulele, drums are parodies/interpretations of the original songs. You may use it for private study, scholarship, research or language learning purposes only