Home » M » Motionless In White »

Motionless In White - Sick From The Melt Tabs

Artists:  A B C D E F G H I J K L M N O P Q R S T U V W X Y Z # 

Sick From The Melt Tabs

(ver. 2) Click to play this song!
Motionless In White
[Intro]
 
B |---------------------------------------------------------------------------|
F#|---------------------------------------------------------------------------|
D |---------------------------------------------------------------------------|
A |---------------------------------------------------------------------------|
E |---------------------------------------------------------------------------|
A |--0-2-2-5-3-2-5-3-2-5-3-2-0-2-2-2---x8-------------------------------------|
 
[Verse 1]
 
Guitar 1
B |---------------------------------------------------------------------------|
F#|---------------------------------------------------------------------------|
D |---------------------------------------------------------------------------|
A |---------------------------------------------------------------------------|
E |---------------------------------------------------------------------------|
A |--0-2-2-2----0-3-3-3----0-2-2-2----0-3-3-3---------------------------------|
 
B |---------------------------------------------------------------------------|
F#|---------------------------------------------------------------------------|
D |---------------------------------------------------------------------------|
A |---------------------------------------------------------------------------|
E |---------------------------------------------------------------------------|
A |--0-2-2-2----0-3-3-3----0-2-2-2----0-3-3-3---------------------------------|
 
Guitar 2
B |---------------------------------------------------------------------------|
F#|---------------------------------------------------------------------------|
D |---------------------------------------------------------------------------|
A |---------------------------------------------------------------------------|
E |---------------------------------------------------------------------------|
A |--0-2-2-5-3-2-5-3-2-5-3-2-0-2-2-2---x4-------------------------------------|
 
[Chorus]
 
B |---------------------------------------------------------------------------|
F#|---------------------------------------------------------------------------|
D |---------------------------------------------------------------------------|
A |--------------------------------------10---7-------------------------------|
E |--------------------------------------10---7-------------------------------|
A |--0-2-2-5-3-2-5-3-2-5-3-2-0-2-2-2-----10---7-------------------------------|
 
B |---------------------------------------------------------------------------|
F#|---------------------------------------------------------------------------|
D |---------------------------------------------------------------------------|
A |--------------------------------------10---12------------------------------|
E |--------------------------------------10---12------------------------------|
A |--0-2-2-5-3-2-5-3-2-5-3-2-0-2-2-2-----10---12------------------------------|
 
B |---------------------------------------------------------------------------|
F#|---------------------------------------------------------------------------|
D |---------------------------------------------------------------------------|
A |--------------------------------------10---7-------------------------------|
E |--------------------------------------10---7-------------------------------|
A |--0-2-2-5-3-2-5-3-2-5-3-2-0-2-2-2-----10---7-------------------------------|
 
B |---------------------------------------------------------------------------|
F#|---------------------------------------------------------------------------|
D |---------------------------------------------------------------------------|
A |--------------------------------------10---12------------------------------|
E |--------------------------------------10---12------------------------------|
A |--0-2-2-5-3-2-5-3-2-5-3-2-0-2-2-2-----10---12------------------------------|
 
[Verse 2]
 
B |---------------------------------------------------------------------------|
F#|---------------------------------------------------------------------------|
D |---------------------------------------------------------------------------|
A |---------------------------------------------------------------------------|
E |---------------------------------------------------------------------------|
A |--0-2-2-2----0-3-3-3----0-2-2-2----0-3-3-3---------------------------------|
 
B |---------------------------------------------------------------------------|
F#|---------------------------------------------------------------------------|
D |---------------------------------------------------------------------------|
A |---------------------------------------------------------------------------|
E |---------------------------------------------------------------------------|
A |--0-2-2-2----0-3-3-3----0-2-2-2--------------------------------------------|
 
B |---------------------------------------------------------------------------|
F#|---------------------------------------------------------------------------|
D |---------------------------------------------------------------------------|
A |---------------------------------------------------------------------------|
E |---------------------------------------------------------------------------|
A |--0-2-2-5-3-2-5-3-2-5-3-2-0-2-2-2--x3--------------------------------------|
 
[Chorus]
 
B |---------------------------------------------------------------------------|
F#|---------------------------------------------------------------------------|
D |---------------------------------------------------------------------------|
A |--------------------------------------10---7-------------------------------|
E |--------------------------------------10---7-------------------------------|
A |--0-2-2-5-3-2-5-3-2-5-3-2-0-2-2-2-----10---7-------------------------------|
 
B |---------------------------------------------------------------------------|
F#|---------------------------------------------------------------------------|
D |---------------------------------------------------------------------------|
A |--------------------------------------10---12------------------------------|
E |--------------------------------------10---12------------------------------|
A |--0-2-2-5-3-2-5-3-2-5-3-2-0-2-2-2-----10---12------------------------------|
 
B |---------------------------------------------------------------------------|
F#|---------------------------------------------------------------------------|
D |---------------------------------------------------------------------------|
A |--------------------------------------10---7-------------------------------|
E |--------------------------------------10---7-------------------------------|
A |--0-2-2-5-3-2-5-3-2-5-3-2-0-2-2-2-----10---7-------------------------------|
 
B |---------------------------------------------------------------------------|
F#|---------------------------------------------------------------------------|
D |---------------------------------------------------------------------------|
A |--------------------------------------10---12------------------------------|
E |--------------------------------------10---12------------------------------|
A |--0-2-2-5-3-2-5-3-2-5-3-2-0-2-2-2-----10---12------------------------------|
 
 
 
 
[Bridge]
 
B |---------------------------------------------------------------------------|
F#|---------------------------------------------------------------------------|
D |---------------------------------------------------------------------------|
A |----------------------------------------3-3-3---0-0-0-0--------------------|
E |----------------------------------------3-3-3---0-0-0-0--------------------|
A |--2-2-2-2-2-2---2-2---2-2-2-2--2--2-2---3-3-3---0-0-0-0--------------------|
 
B |---------------------------------------------------------------------------|
F#|---------------------------------------------------------------------------|
D |---------------------------------------------------------------------------|
A |----------------------------------------3-3-3---6-6-6-6--------------------|
E |----------------------------------------3-3-3---6-6-6-6--------------------|
A |--2-2-2-2-2-2---2-2---2-2-2-2--2--2-2---3-3-3---6-6-6-6--------------------|
 
8 bar break
 
[Chorus]
 
B |---------------------------------------------------------------------------|
F#|---------------------------------------------------------------------------|
D |---------------------------------------------------------------------------|
A |--------------------------------------10---7-------------------------------|
E |--------------------------------------10---7-------------------------------|
A |--0-2-2-5-3-2-5-3-2-5-3-2-0-2-2-2-----10---7-------------------------------|
 
B |---------------------------------------------------------------------------|
F#|---------------------------------------------------------------------------|
D |---------------------------------------------------------------------------|
A |--------------------------------------10---12------------------------------|
E |--------------------------------------10---12------------------------------|
A |--0-2-2-5-3-2-5-3-2-5-3-2-0-2-2-2-----10---12------------------------------|
 
B |---------------------------------------------------------------------------|
F#|---------------------------------------------------------------------------|
D |---------------------------------------------------------------------------|
A |--------------------------------------10---7-------------------------------|
E |--------------------------------------10---7-------------------------------|
A |--0-2-2-5-3-2-5-3-2-5-3-2-0-2-2-2-----10---7-------------------------------|
 
B |---------------------------------------------------------------------------|
F#|---------------------------------------------------------------------------|
D |---------------------------------------------------------------------------|
A |--------------------------------------10---12------------------------------|
E |--------------------------------------10---12------------------------------|
A |--0-2-2-5-3-2-5-3-2-5-3-2-0-2-2-2-----10---12------------------------------|
 
 
[Outro]
 
B |---------------------------------------------------------------------------|
F#|---------------------------------------------------------------------------|
D |---------------------------------------------------------------------------|
A |---------------------------------------------------------------------------|
E |---------------------------------------------------------------------------|
A |--0-2-2-5-3-2-5-3-2-5-3-2-0-2-2-2--x8--------------------------------------|
            
Submit corrections

↑ Back to top | Tablatures and chords for acoustic guitar and electric guitar, ukulele, drums are parodies/interpretations of the original songs. You may use it for private study, scholarship, research or language learning purposes only