» » »

Montgomery Gentry - Hillbilly Shoes(2) Tabs

Artists:  A B C D E F G H I J K L M N O P Q R S T U V W X Y Z # 

Hillbilly Shoes(2) Tabs

(ver. 3) Click to play this song!
Montgomery Gentry
 Rating:
4/5 (4 votes)

 Hillbilly Shoes(2) lessons Tabs too difficult? Try these video lessons and learn fast
 
                Hillbilly Shoes by Montgomery Gentry (Solo)

This is my interpretation of the 1st solo in this song........  



E-15/17-15\13-13h15p13---------------------------- 
B----------------------15-13-13h15----------------
G-------------------------------------------------
D-------------------------------------------------  
A-------------------------------------------------
E-------------------------------------------------


E-------------------------------------------------
B-13---13-----------------------------------------  
G----14---14-12-10-10h12-10------------10--10-----
D---------------------------12-10-10h12--12--12---  
A-------------------------------------------------  
E-------------------------------------------------


E-------------------------------------------------  
B-------------------------------------------------
G--------------10----------12b-10h12-10-----------  
D--------10h12----12-10h12-------------12-10h12---  
A-10h12-------------------------------------------  
E------------------------------------------------- 


E-------------------------------------------------
B-------------------------------------------------
G--10-10----------10-10---------------------------
D--10-10-12-10----10-10-12-10----10h12~-----------
A-------------h12-------------h12-----------------
E-------------------------------------------------











            
Submit corrections


        Hillbilly Shoes(2) lessons Hard to play? Try these video lessons and learn fast Hillbilly Shoes(2) lessons
        
↑ Back to top | Tablatures and chords for acoustic guitar and electric guitar, ukulele, drums are parodies/interpretations of the original songs. You may use it for private study, scholarship, research or language learning purposes only