» » »

Montgomery Gentry - Hillbilly Shoes(2) Tabs

Artists:  A B C D E F G H I J K L M N O P Q R S T U V W X Y Z # 

Hillbilly Shoes(2) Tabs

(ver. 1) Click to play this song!
Montgomery Gentry
 Rating:
4/5 (4 votes)

 Hillbilly Shoes(2) lessons Tabs too difficult? Try these video lessons and learn fast
 
                …hillbilly shoes…
E------------------------------------------------------------------
B-----------------------------------------------------------------
G-----------5b-----7r—7r---------5-----------------------------
D--------7------7-------------5^7--------7^5--------------------
A--------------------------------------------------5---8b---5/----
E-------------------------------------------------------------------

..sense into you…
E-------------------------------------------------------------------------
B-------------------------------------------------------------------------
G-------------------------------------------------------------------------
D--------5^7-5---------5^7-5-------5^7-5-----------------------------
A-----------------8-5-----------8r------------8---5^0---3^0-----------
E-----------------------------------------------------------------3b-0---

1st Solo
E-17r-15------15------------------------------------------------------------------
B----------18-------18--15-----15------------------------------------------------
G-----------------------------17----------17b-14-17-14--------------------------
D------------------------------------------------------------17-15-------15--------
A---------------------------------------------------------------------17-------17---
E-------------------------------------------------------------------------------------

1st Solo Cont.
E----------------------------------------------------------------------------------
B----------------------------------------------------------------------------------
G----------------------------17b-14---------------------------------------------
D----------15-15----------------------17-17-15----17-17-15-----------------
A-15^17----------17^15-----------------------------------------17^15-17---
E----------------------------------------------------------------------------------

…hillbilly shoes…
E------------------------------------------------------------------
B-6b-------------6b----------------------------------------------
G-----7^5-----------7^5--------------5-------------------------
D-----------7--------------7-----5^7------7^5------------------
A---------------------------------------------------5—7b--5----
E------------------------------------------------------------------

End Solo (extension of 1st)
E-13^10-----------13^10-----------------------------------------------------------------------------
B----------13^10-----------13^10--------------------------------------------------------------------
G--------------------------------------10-12b----12-10-10---------------------10^-----------------
D------------------------------------------------------------------------10^12--------12---10^12---
A---------------------------------------------------------------10^12---------------------------------
E--------------------------------------------------------------------------------------------------------

End Solo Cont.
E------------------------------------------
B—14b------------9b-------------------
G----------12b------------7b------------
D------------------------------------------
A------------------------------------------
E------------------------------------------
            
Submit corrections


        Hillbilly Shoes(2) lessons Hard to play? Try these video lessons and learn fast Hillbilly Shoes(2) lessons
        
↑ Back to top | Tablatures and chords for acoustic guitar and electric guitar, ukulele, drums are parodies/interpretations of the original songs. You may use it for private study, scholarship, research or language learning purposes only