» » »

Montgomery Gentry - Hillbilly Shoes(2) Tabs

Artists:  A B C D E F G H I J K L M N O P Q R S T U V W X Y Z # 

Hillbilly Shoes(2) Tabs

(ver. 2) Click to play this song!
Montgomery Gentry
 Rating:
4/5 (4 votes)

 Hillbilly Shoes(2) lessons Tabs too difficult? Try these video lessons and learn fast
 
                Hillbilly Shoes
Intro
Drop D Tunning

----------------------------------------------------------
----------------------------------------------------------
----------------------------------------------------------
-----O-O-3pO----------O-O-3pO----------O-O-3pO------------
-3h5---------5-5--3h5---------5-5--3h5---------5-5-3-O----
-------------------------------------------------------3-O


------------------------------------------------------------
------------------------------------------------------------
------------------------------------------------------------
-----O-O-3pO----------5-3pO----------O-O-3pO----------------
-3h5---------5-5--3h5-------5-5--3h5---------5-5--3-O-------
------------------------------------------------------3-O---
            
Submit corrections


        Hillbilly Shoes(2) lessons Hard to play? Try these video lessons and learn fast Hillbilly Shoes(2) lessons
        
↑ Back to top | Tablatures and chords for acoustic guitar and electric guitar, ukulele, drums are parodies/interpretations of the original songs. You may use it for private study, scholarship, research or language learning purposes only