Home » M » Minutemen »

Minutemen - Corona Tabs

Artists:  A B C D E F G H I J K L M N O P Q R S T U V W X Y Z # 

Corona Tabs

(ver. 3) Click to play this song!
Minutemen
Chord chart for song:


  G    Bm   Am   D
e|3----2----0----2--|
B|3----3----1----3--|
G|0----4----2----2--|
D|0----4----2----0--|
A|x----2----0----0--|
E|3----x----x----x--|


 Intro:                                   |--------------------------------------------------|
                                          |                      Repeat                      |
  4/4.................                    |                        4x                        |
e|-------------|--------3-3-3-----|-3-3-3---------------|------------------3-3-3-|-----3-3-3--|
B|--0--3-7-7-7~|-3-3-1--3-3-3-----|-3-3-3---3-3-7-7-7-3-|-3-3-7-7-7--3-3-1-3-3-3-|-----3-3-3--|
G|--4--5/7-7-7~|-5-4-2--0-0-0-----|-0-0-0-*-4-5/7-7-7-5-|-4-5/7-7-7--5-4-2-0-0-0-|-----0-0-0-*|
D|--0--0-0-0-0-|-0-0-0--0-0-0-----|-0-0-0-*-0-0-0-0-0-0-|-0-0-0-0-0--0-0-0-0-0-0-|-----0-0-0-*|
A|-------------|--------x-x-x-0-2-|-x-x-x---------------|------------------x-x-x-|-0-2-x-x-x--|
E|-------------|--------3-3-3-----|-3-3-3---------------|------------------3-3-3-|-----3-3-3--|


 Verses/Choruses:

G   Bm             D     G  Bm           D   Am    D     
The people will survive, in their environment. The dirt, scarcity,

  Fill-in I: (00:39)
e|-----5-5-8-x-5--|
B|-6h7------------|
G|----------------|
D|----------------|
A|----------------|
E|----------------|


G                Bm       D     G     Bm              D     G
and the emptiness, of our south. The injustice of our greed. 

  Fill-in II: (01:05)
e|-----5-5-8-7-6-5---|
B|-6h7-------------7-|
G|-------------------|
D|-------------------|
A|-------------------|
E|-------------------|


    Bm        D    Am    D               G                Bm       D
The practice we inherit. The dirt, scarcity, and the emptiness, of our south.

  Fill-in III: (01:23)
e|-13-13-10---------|
B|----------13-10-8-|
G|------------------|
D|------------------|
A|------------------|
E|------------------|


G       Bm     D      G       Bm            D   Am  D          G      Bm          D
They're on the beach. I could see it in her eyes. I only had a corona five cent deposit.


  Fill-in IV: (01:30)                Fill-in V: (01:49)
e|-----5-5-8-x-5-----------|       e|----------------------------|
B|-6h7-----------8pb10pbr8-|       B|-13-13-13-13-(13)-10-8br6---|
G|-------------------------|       G|--------------------------7-|
D|-------------------------|       D|----------------------------|
A|-------------------------|       A|----------------------------|
E|-------------------------|       E|----------------------------|


 Outro:

   |--------------------------------------------------|
   |                     Repeat                       |
   |                       4x                         |     End on: (02:17)
e|---------------|------------------3-3-3-|-----3-3-3--|  e|--------------3-|---------|
B|---3-3-7-7-7-3-|-3-3-7-7-7--3-3-1-3-3-3-|-----3-3-3--|  B|-7-7-7--3-3-1-3-|---------|
G|-*-4-5/7-7-7-5-|-4-5/7-7-7--5-4-2-0-0-0-|-----0-0-0-*|  G|-7-7-7--5-4-2-0-|---------|
D|-*-0-0-0-0-0-0-|-0-0-0-0-0--0-0-0-0-0-0-|-----0-0-0-*|  D|-0-0-0--0-0-0-0-|---------|
A|---------------|------------------x-x-x-|-0-2-x-x-x--|  A|--------------x-|---------|
E|---------------|------------------3-3-3-|-----3-3-3--|  E|--------------3-|-3/6-6\3-|


Song structure:

Intro
Verse I
Chorus I
Verse II
Chorus II
Verse III
Outro            
Submit corrections

↑ Back to top | Tablatures and chords for acoustic guitar and electric guitar, ukulele, drums are parodies/interpretations of the original songs. You may use it for private study, scholarship, research or language learning purposes only