Home » M » Minutemen »

Minutemen - Corona Tabs

Artists:  A B C D E F G H I J K L M N O P Q R S T U V W X Y Z # 

Corona Tabs

(ver. 1) Click to play this song!
Minutemen
-------------------------------------------------------------------------------
			     CORONA - The Minutemen
-------------------------------------------------------------------------------

Tuning: Standard

e|---------------------------------------------------------------------------|
B|--3----5----5/7----7------------------5----3----1--------------------------|
G|--4----5----5/7-------7~~~~-----------5----4----2--------------------------|
D|--0----0----0--------------------------------------------------------------|
A|---------------------------------------------------------------------------|
E|---------------------------------------------------------------------------|

4x
e|--------------------------------------------------------------------------------------------|
B|--0--0--0--0--0--0--------0--0--0--0--0--0--3--5--7----7--7--7----3--5--7----7--7--5--3--1--|
G|--0--0--0--0--0--0--------0--0--0--0--0--0--4--5--7----7--7--7----4--5--7----7--7--5--4--2--|
D|--0--0--0--0--0--0--------0--0--0--0--0--0--------0----0--0--0----------0----0--0--0--------|
A|--------------------1--2--------------------------------------------------------------------|
E|--------------3-----------------------3-----------------------------------------------------|

Verse: G Bm D G Bm D
Chorus: Am D G Bm D

Guitar Fills:

0:37				   1:05
e|-------5--5----5--8--5--5--5----|-------5--5----8--7--6--5------------------|
B|--6h7---------------------------|--5h6----------------------7---------------|
G|--------------------------------|-------------------------------------------|
D|--------------------------------|-------------------------------------------|
A|--------------------------------|-------------------------------------------|
E|--------------------------------|-------------------------------------------|

1:24				  1:31
e|--13--13--10-------------------|-------5--5----8--5--5----------------------|
B|--------------13--10----x-8----|--6h7-------------------8b10r8--------------|
G|-------------------------------|--------------------------------------------|
D|-------------------------------|--------------------------------------------|
A|-------------------------------|--------------------------------------------|
E|-------------------------------|--------------------------------------------|

1:49
e|--8--8--8--8--8--8---------------------------------------------------------|
B|--------------------8b10r8--5----------------------------------------------|
G|-------------------------------7-------------------------------------------|
D|---------------------------------------------------------------------------|
A|---------------------------------------------------------------------------|
E|---------------------------------------------------------------------------|


| /  slide up
| \  slide down
| h  hammer-on
| p  pull-off
| ~  vibrato
| +  harmonic
| x  Mute note
===============================================================================
            
Submit corrections

↑ Back to top | Tablatures and chords for acoustic guitar and electric guitar, ukulele, drums are parodies/interpretations of the original songs. You may use it for private study, scholarship, research or language learning purposes only