Home » M » Minutemen »

Minutemen - It's Expected I'm Gone Bass

Artists:  A B C D E F G H I J K L M N O P Q R S T U V W X Y Z # 

It's Expected I'm Gone Bass

(Version #1)
Minutemen
Band: The Mintuemen
Bassist: Mike Watt

Intro/Verse:
G-7-6p0------7-6p0----------------7p6p0-------|
D----------------------7----5h7---------------|
A---------------------------------------------|
E-------------------5-5---5-------------------| a few times

then:
G--9-7-6-7-6-----------------|
D-------------5-7-5-4-5-4----|
A--------------------------5-|
E----------------------------|

G---------------------------------|
D---------------------------------|
A-------5-4-0----------5-4-0------|
E-5-5-5--------5-5-5------5-5-5---|

Guitar Solo:
G-------------------------------------------|
D-------14~\--------14~\---------14~\-------|
A--7----------/3~-----------/3~--------/3~--|
E-------------------------------------------|
            
Submit corrections

↑ Back to top | Tablatures and chords for acoustic guitar and electric guitar, ukulele, drums are parodies/interpretations of the original songs. You may use it for private study, scholarship, research or language learning purposes only