» » »

Milburn - Send In The Boys Tabs

Artists:  A B C D E F G H I J K L M N O P Q R S T U V W X Y Z # 

Send In The Boys Tabs

(ver. 3) Click to play this song!
Milburn
 Rating:
4/5 (4 votes)

 Send In The Boys lessons Tabs too difficult? Try these video lessons and learn fast
 
                I tabbed this song by ear so if thers any mistakes feel free to comment for improvements 
enjoy


Pluck these two notes with the drum roll (destortion)-

E---xx-3--0----xx-3--0------|
B---------------------------|
G---------------------------| repeat until the intro
D---------------------------|
A---------------------------|
E---------------------------|

Intro (clean)-

E-------------------------------------------------------------------|
B-------------------------------------------------------------------|
G-----------------------------------------------------------------9-|
D--------9--7-----------9--7--------------7--9------9--7------7---7-|
A---7----7--5--10--7----7--5--10--7---10--5--7--7---7--5--10--5-----|
E---5----------8---5----------8---5---8---------5---------8---------|

|-----------------------------------------------|
|-----------------------------------------------|
|-7-------------7--9----------------------------| x3
|-5--10--9---9--5--7------9--7----------0-------|
|----8---7---7--------7---7--5--10--7---0---h5--|
|---------------------5---------8---5---0---h3--|

(distortion)

E-----------------------------------------------|
B-------------------------------------881010----|
G-------------------------777777779999779-9-----| x2
D-777777771010101010101010777777779999557-7-----|
A-777777771010101010101010555555557777----------|
E-555555558-8-8-8-8-8-8-8-----------------------|

------------------------------------------------|
-------------------------------------810--------|
--------------------------7-----7779979---------|
--7777777710101010101010107-----7779957-7-------|
--7777777710101010101010105-----55577---7-------|
--555555558-8-8-8-8-8-8-8---------------5-------|


(slight distortion)

E-------------------------------------------------------------------|
B-------------------------------------------------------------------|
G-----------------------------------------------------------------9-|
D--------9--7-----------9--7--------------7--9------9--7------7---7-|
A---7----7--5--10--7----7--5--10--7---10--5--7--7---7--5--10--5-----|
E---5----------8---5----------8---5---8---------5---------8---------|

|-----------------------------------------------|
|-----------------------------------------------|
|-7-------------7--9----------------------------| x2
|-5--10--9---9--5--7------9--7------------------|
|----8---7---7--------7---7--5--10--7--5557575--|
|---------------------5---------8---5--3335353--|


(distortion)

E-----------------------------------------------|
B-------------------------------------881010----|
G-------------------------777777779999779-9-----| x2
D-777777771010101010101010777777779999557-7-----|
A-777777771010101010101010555555557777----------|
E-555555558-8-8-8-8-8-8-8-----------------------|

------------------------------------------------|
-------------------------------------810--------|
--------------------------7-----7779979---------|
--7777777710101010101010107-----7779957-7-------|
--7777777710101010101010105-----55577---7-------|
--555555558-8-8-8-8-8-8-8---------------5-------|


E-------------------------------------|
B-------------------------------------|
G-------------------------------------| x4
D---------------------------5---7-5---|
A--7775-6-77777-6-57775-6-7---7-----7-|
E--555-----555-----555----------------|


solo

as im doing this song by ear i cant realli be bothered to tab the solo (i just make my 
up)


E-----------------------------------------------|
B-------------------------------------881010----|
G-------------------------777777779999779-9-----| x2
D-777777771010101010101010777777779999557-7-----|
A-777777771010101010101010555555557777----------|
E-555555558-8-8-8-8-8-8-8-----------------------|

------------------------------------------------|
-------------------------------------810--------|
--------------------------7-----7779979---------|
--7777777710101010101010107-----7779957-7-------|
--7777777710101010101010105-----55577---7-------|
--555555558-8-8-8-8-8-8-8---------------5-------|


E-------------------------------------------------|
B-------------------------------------------------|
G-------------------------------------------------|
D--------9--7-----------9--7----------9--7--------|
A---7----7--5--10--7----7--5--10--7---7--5--10--7-|
E---5----------8---5----------8---5---------8---5-|

End.
            
Submit corrections


        Send In The Boys lessons Hard to play? Try these video lessons and learn fast Send In The Boys lessons
        
↑ Back to top | Tablatures and chords for acoustic guitar and electric guitar, ukulele, drums are parodies/interpretations of the original songs. You may use it for private study, scholarship, research or language learning purposes only