» » »

Milburn - Send In The Boys Bass

Artists:  A B C D E F G H I J K L M N O P Q R S T U V W X Y Z # 

Send In The Boys Bass

(ver. 1) Click to play this song!
Milburn
 Rating:
4.2/5 (5 votes)

 Send In The Boys lessons Tabs too difficult? Try these video lessons and learn fast
 
                Intro:
where each (-) represesnts a quaver (8th beat note)

G|--------|--------|--------|--------|--------|--------|--------|--------|
D|--------|--------|--------|--------|--------|--------|--------|--------|
A|--------|---000--|--------|---000--|--------|---000--|--------|---000--|
E|0.......|333---33|0.......|333---33|0...0...|333---33|0.0.0.0.|333---33|

Verse: 
this is very syncopated, so listen to the song to get the correct timing 

G|-----------------------20---024--------------|  X2   Second time is when 
D|--20---20-----02--20-0---32-------20---------|       Joe starts to sing
A|0---30---30--3--0---3-----------0---30-------|
E|--------------------------------------0....03|

G|-----------------------20---024-----------------|
D|--20---20-----02--02-0---32---------------------|
A|0---30---30--3--0---3-----------000-000-000-012.|
E|-----------------------------------4---4---4----|

Chorus: Fast 

G|--------|--------|--------|--------|--------|--------|--------|--------|
D|--------|--------|--------|--------|--------|--------|--------|--------|
A|00000000|33333333|--------|--------|00000000|33333333|--------|--------|
E|--------|--------|33333333|00003333|--------|--------|33333333|00003333|

G|--------|--------|--------|--------|
D|--------|--------|--------|--------|
A|00000000|33333333|--------|--------|
E|--------|--------|3.......|0..033.3|

Bridge:

G|-----------------------|
D|--20---20---20---------|
A|0---30---30---30-------|
E|-----------------0...03|

Verse 2:

G|-----------------------20---024--------------|  
D|--20---20-----02--20-0---32-------20-0--020--|   
A|0---30---30--3--0---3-----------0---3-03---3-|
E|--------------------------------------------3|

G|-----------------------20---024-----------------|
D|--20---20-----02--02-0---32---------------------|
A|0---30---30--3--0---3-----------000-000-000-012.|
E|-----------------------------------4---4---4----|

Chorus: (again, Fast)

G|--------|--------|--------|--------|--------|--------|--------|--------|
D|--------|--------|--------|--------|--------|--------|--------|--------|
A|00000000|33333333|--------|--------|00000000|33333333|--------|--------|
E|--------|--------|33333333|00003333|--------|--------|33333333|00003333|

G|--------|--------|--------|--------|
D|--------|--------|--------|--------|
A|00000000|0/333333|--------|--------|
E|--------|--------|3.......|0..033.3|

Guitar Solo:

G|------|------|------|-------|--------|--------|--------|------------|
D|------|------|------|-------|--------|--------|--------|------------|
A|0.....|......|......|....345|0-0-0---|0-0-0---|0-0-0---|000000000000|
E|------|------|------|-------|--------|--------|--------|(twelve 0's^)

                                        /1st Time bar\  /2nd Time bar\  
G|(:-----------|-----------|-----------||------------:) |-----------|
D|(:-----------|-----------|-----------||5---5-7-5---:) |5---5-7777-|
A|(:------5-6-7|------7-6-5|------5-6-7||--7-------7-:) |--7--------|
E|(:5-5-5------|5-5-5------|5-5-5------||------------:) |-----------|

G|--------|--------|--------|--------|------|------|------|------|
D|--------|--------|--------|--------|------|------|------|------|
A|00000002|33333332|00000002|33333330|-----2|---2h3|---2h3|------|
E|--------|--------|--------|--------|3-----|3-----|3-----|3-2---|

Chorus:

G|--------|--------|--------|--------|--------|--------|--------|--------|
D|--------|--------|--------|--------|--------|--------|--------|--------|
A|00000000|33333333|--------|--------|00000000|33333333|--------|--------|
E|--------|--------|33333333|00003333|--------|--------|33333333|00003333|

G|--------|--------|--------|--------|
D|--------|--------|--------|--------|
A|00000000|0/333333|--------|--------|
E|--------|--------|3.......|0..033.3|

Outro: (same as Bridge)

G|-----------------|
D|--20---20---20---|
A|0---30---30---30-|
E|-----------------|



| /  slide up
| \  slide down
| h  hammer-on
| p  pull-off
| ~  vibrato
| +  harmonic
| x  Mute note
| .. Let ring
| (:,:)  repeat sign
            
Submit corrections


        Send In The Boys lessons Hard to play? Try these video lessons and learn fast Send In The Boys lessons
        
↑ Back to top | Tablatures and chords for acoustic guitar and electric guitar, ukulele, drums are parodies/interpretations of the original songs. You may use it for private study, scholarship, research or language learning purposes only