Home » M » Mccoys »

Mccoys - Hang On Sloopy Bass

Artists:  A B C D E F G H I J K L M N O P Q R S T U V W X Y Z # 

Hang On Sloopy Bass

(ver. 3) Click to play this song!
Mccoys
 Rating:
2.6/5 (25 votes)
                 Intro
  Q=105
 4/4
  Gtr I
  W          H    Q   Q     e E E E e E E E   e E E E e E Q
|----------|--------------|-----------------|----------------||
|----------|--------------|-----------------|----------------||
|----------|--------------|---------3-----3-|-5-----5-3------||
|----------|---------10\--|-3-----3---------|-------------5--||


   Chorus
    Q.   E Q.   E   Q.   E Q  Q    Q.   E Q.   E   Q.   E Q  Q
||----------------|--------------|---------------|----------------||
||o---------------|--------------|---------------|---------------o||
||o--------3----3-|-5----5-3-----|--------3----3-|-5----5-3------o||
||--3----3--------|-----------5--|-3----3--------|-----------5----||


   Verses 1 & 2
    e E E E e E E E   e E E E e E Q    e E E E e E E E   e E E E e E Q
||------------------|----------------|-----------------|-----------------|
||o-----------------|----------------|-----------------|-----------------|
||o---------3-----3-|-5-----5-3------|---------3-----3-|-5-----5-3-------|
||--3-----3---------|-------------5--|-3-----3---------|-------------5---|


  e E E E e E E E   e E E E e E Q    e E E E e E E E   e E E E e E Q
|-----------------|----------------|-----------------|----------------|
|-----------------|----------------|-----------------|----------------|
|---------3-----3-|-5-----5-3------|---------3-----3-|-5-----5-3------|
|-3-----3---------|-------------5--|-3-----3---------|-------------5--|


  e E E E e E E E   e E E E e E Q    e E E E e E E E   e E E E e E Q
|-----------------|----------------|-----------------|----------------|
|-----------------|----------------|-----------------|----------------|
|---------3-----3-|-5-----5-3------|---------3-----3-|-5-----5-3------|
|-3-----3---------|-------------5--|-3-----3---------|-------------5--|


  e E E E e E E E   e E E E e E Q    e E E E e E E E   e e e e e e e e
|-----------------|----------------|-----------------|-----------------||
|-----------------|----------------|-----------------|-----------------||
|---------3-----3-|-5-----5-3------|---------3-----3-|-5-5-5-5-5-5-5-5-||
|-3-----3---------|-------------5--|-3-----3---------|-----------------||


 Chorus
  Q.   E Q.   E   Q.   E Q  Q    Q.   E Q.   E   Q.   E Q  Q
|---------------|--------------|---------------|--------------|
|---------------|--------------|---------------|--------------|
|--------3----3-|-5----5-3-----|--------3----3-|-5----5-3-----|
|-3----3--------|-----------5--|-3----3--------|-----------5--|


  Q.   E Q.   E   Q.   E Q  Q    Q.   E Q.   E   Q.   E Q  Q
|---------------|--------------|---------------|---------------||
|---------------|--------------|---------------|--------------o||
|--------3----3-|-5----5-3-----|--------3----3-|-5----5-3-----o||
|-3----3--------|-----------5--|-3----3--------|-----------5---||


   Guitar Solo
    e E E E e E E E   e E E E e E Q    e E E E e E E E   e E E E e E Q    3x
||------------------|----------------|-----------------|------------------||
||o-----------------|----------------|-----------------|-----------------o||
||o---------3-----3-|-5-----5-3------|---------3-----3-|-5-----5-3-------o||
||--3-----3---------|-------------5--|-3-----3---------|-------------5----||


   Verse 3
    e E E E e E E E   e E E E e E Q    e E E E e E E E   e E E E e E Q    5x
||------------------|----------------|-----------------|------------------||
||o-----------------|----------------|-----------------|-----------------o||
||o---------3-----3-|-5-----5-3------|---------3-----3-|-5-----5-3-------o||
||--3-----3---------|-------------5--|-3-----3---------|-------------5----||


  Q.   E Q.   E   Q.   E Q  Q    Q.   E Q.   E
|---------------|--------------|---------------|
|---------------|--------------|---------------|
|--------3----3-|-5----5-3-----|--------3----3-|
|-3----3--------|-----------5--|-3----3--------|


  e e e e e e e e   e e e e e e e e
|-----------------|-----------------||
|-----------------|-----------------||
|-5-5-5-5-5-5-5-5-|-5-5-5-5-5-5-5-5-||
|-----------------|-----------------||


   Out-Chorus
    Q.   E Q.   E   Q.   E Q  Q    Q.   E Q.   E   Q.   E Q  Q
||----------------|--------------|---------------|----------------||
||o---------------|--------------|---------------|---------------o||
||o--------3----3-|-5----5-3-----|--------3----3-|-5----5-3------o||
||--3----3--------|-----------5--|-3----3--------|-----------5----||


  Q.   E Q.   E   Q.   E Q  Q    E e e E E e e E
|---------------|--------------|-----------------|
|---------------|--------------|-----------------|
|--------3----3-|-5----5-3-----|-----------3-3---|
|-3----3--------|-----------5--|---3-3-----------|


  E e e E E e e e   e E Q  H
|-----------------|-------------*|
|-----------------|-------------*|
|---5-5-----3-3-3-|-------------*|
|-----------------|-3-----------*|
            
Submit corrections

↑ Back to top | Tablatures and chords for acoustic guitar and electric guitar, ukulele, drums are parodies/interpretations of the original songs. You may use it for private study, scholarship, research or language learning purposes only