» » »

Mccoys - Hang On Sloopy Tabs

Artists:  A B C D E F G H I J K L M N O P Q R S T U V W X Y Z # 

Hang On Sloopy Tabs

(ver. 2) Click to play this song!
Mccoys
 Rating:
4/5 (4 votes)

 Hang On Sloopy lessons Tabs too difficult? Try these video lessons and learn fast
 
                Hang on Sloopy
By
The McCoys and The Yardbirds

Super easy song, but a classic none the less…. It is the same chord progression all the
through with a neat little bass riff that you can easily play on guitar (the solo is
rockin though for an oldies song i think i half did it 50% right so, rock on with that 
figure it out yourself...Live and Let Rock

Tunning- eBGDAE
Chords Used:
G  C or C    D  or  D
3   3   8    5      10
3   4   8    6      10
4   5   9    7      11
5   5   10   7      12
5   3   10   5      12
3   3   8    5      10


G  C    D       C            G
Hang on sloopy, sloopy hang on

[Riff 1]
----------------------------|
----------------------------|
----------------------------|
----------------------------|
------3-3--5-5---3--0-------|
--3-3-----------------------|
G  C    D       C           G
Hang on sloopy, sloopy hang on

[Riff 1]

G      C         D      C             G
Sloopy lives in a very bad part of town
[Riff 1]
    G         C              D   C         G
and everybody else, tries to put my sloopy down
[Riff 1]
       (Just keeps going and going all the way through, you must get
        the point by now!)
Sloopy I don't care, what your daddy do
Cuz you know sloopy, girl, I'm inlove with you

and so I say now

Hang on sloopy, sloopy hang on
Hang on sloopy, sloopy hang on

Give it to me now

(solo time...i think this is half well done!)
(the 13 are thirteens not ones and threes and same with the 15...they are jsut close
cause the guy plays the notes so fast!)

-131313131313131313-1313131313-1313131313-1313131313-1313131313/151515151515-|
-131313131313131313-1313131313-1313131313-1313131313-1313131313/151515151515-|
-----------------------------------------------------------------------------|
-----------------------------------------------------------------------------|
-----------------------------------------------------------------------------|
-----------------------------------------------------------------------------|

-----------------------------------------------|
-15--17--18--20-20-20-20-20-20-b20-22-10-12-14-|
-----------------------------------------------|
-----------------------------------------------|
-----------------------------------------------|
-----------------------------------------------|

-14-14p12h14p12h14p12-10p8h10p18h10p8h10p8-4-2h4p2h4p2h4p2h4--2--4-6--|
----------------------------------------------------------------------|
----------------------------------------------------------------------|
----------------------------------------------------------------------|
----------------------------------------------------------------------|
----------------------------------------------------------------------|

---b8-b8-b8-b8-b8-b8-b8-b8-b8------------------|
-----------------------------------------------|
-----------------------------------------------|
-----------------------------------------------|
----------------------------------3-3-5-5-3-0--|
------------------------------3-3--------------|

G               C    D     C (etc.....and so forth)
Sloopy let your hair down, ooo
Let it hang down on me
Sloopy let your hair down, girl
Let it hang down on me, yeah

come on sloopy (come on, come on)
oh come on sloopy (come on, come on)
oh come on sloopy (come on, come on)
oh come on sloopy (come on, come on)

well it feels so good (come on, come on)
you know it feels so good (come on, come on)
well shake it, shake it, shake it sloopy (come on, come on)
shake it, shake it, shake it yeah (come on, come on)

hang on sloopy, sloopy hang on
(yeah) (yeah) (yeah) (yeah)
hang on sloopy, sloopy hang on
(yeah) (yeah) (yeah) (yeah)
hang on sloopy, sloopy hang on
            
Submit corrections


        Hang On Sloopy lessons Hard to play? Try these video lessons and learn fast Hang On Sloopy lessons
        
↑ Back to top | Tablatures and chords for acoustic guitar and electric guitar, ukulele, drums are parodies/interpretations of the original songs. You may use it for private study, scholarship, research or language learning purposes only