Home » M » Mccoys »

Mccoys - Hang On Sloopy Bass

Artists:  A B C D E F G H I J K L M N O P Q R S T U V W X Y Z # 

Hang On Sloopy Bass

(ver. 1) Click to play this song!
Mccoys
 Rating:
4.6/5 (9 votes)
                Hang On Sloopy
The McCoys
Written by Wes Farrell and Bert Russell; released as a single with "I Can't 
Explain It" as the B-side, and on the album "Hang On Sloopy".

Intro:
G|------- ------- ------- -------|------- ------- ------- -------|
D|-------------------------------|-------------------------------|
A|-------------------------------|-------------------------------|
E|-------------------------------|------------------------10\----|
  (drums)


G|------- ------- ------- -------|------- ------- ------- -------|
D|-------------------------------|-------------------------------|
A|----------------3-----------3--|5-----------5---3--------------|
E|3-----------3------------------|------------------------5\-----|


Refrain:
G|------- ------- ------- -------|------- ------- ------- -------|
D|-------------------------------|-------------------------------|
A|----------------3-----------3--|5-----------5---3--------------|
E|3-----------3------------------|------------------------5\-----|
  Hang                    on,     Sloopy,         Sloopy, hang on!


G|------- ------- ------- -------|------- ------- ------- -------|
D|-------------------------------|-------------------------------|
A|----------------3-----------3--|5-----------5---3--------------|
E|3-----------3------------------|------------------------5\-----|



G|------- ------- ------- -------|------- ------- ------- -------|
D|-------------------------------|-------------------------------|
A|----------------3-----------3--|5-----------5---3--------------|
E|3-----------3------------------|------------------------5\-----|
  Hang                    on,     Sloopy,         Sloopy, hang on!


G|------- ------- ------- -------|------- ------- ------- -------|
D|-------------------------------|-------------------------------|
A|----------------3-----------3--|5-----------5---3--------------|
E|3-----------3------------------|------------------------5\-----|


Verse:
G|------- ------- ------- -------|------- ------- ------- -------|
D|-------------------------------|-------------------------------|
A|----------------3-----------3--|5-----------5---3--------------|
E|3-----------3------------------|------------------------5\-----|
  Sloopy      lives       in  a   ve- ry      bad      part  of


G|------- ------- ------- -------|------- ------- ------- -------|
D|-------------------------------|-------------------------------|
A|----------------3-----------3--|5-----------5---3--------------|
E|3-----------3------------------|------------------------5\-----|
  town,                                                       And
  oooooooooooooooooooooooooooooooooooooooooooooooooooooooo

G|------- ------- ------- -------|------- ------- ------- -------|
D|-------------------------------|-------------------------------|
A|----------------3-----------3--|5-----------5---3--------------|
E|3-----------3------------------|------------------------5\-----|
  eve  -  ry- bo  -   dy,     yeah,       tries to put my Sloopy


G|------- ------- ------- -------|------- ------- ------- -------|
D|-------------------------------|-------------------------------|
A|----------------3-----------3--|5-----------5---3--------------|
E|3-----------3------------------|------------------------5\-----|
  down.
  oooooooooooooooooooooooooooooooooooooooooooooooooooooooo

G|------- ------- ------- -------|------- ------- ------- -------|
D|-------------------------------|-------------------------------|
A|----------------3-----------3--|5-----------5---3--------------|
E|3-----------3------------------|------------------------5\-----|
  Sloopy,     I       don't   care            what your daddy do,


G|------- ------- ------- -------|------- ------- ------- -------|
D|-------------------------------|-------------------------------|
A|----------------3-----------3--|5-----------5---3--------------|
E|3-----------3------------------|------------------------5\-----|
                                                             'Cause
  oooooooooooooooooooooooooooooooooooooooooooooooooooooooo

G|------- ------- ------- -------|------- ------- ------- -------|
D|-------------------------------|-------------------------------|
A|----------------3-----------3--|5-----------5---3--------------|
E|3-----------3------------------|------------------------5\-----|
  you know,       Sloopy,     girl,       I'm in  love    with you.


G|------- ------- ------- -------|------- ------- ------- -------|
D|-------------------------------|-------------------------------|
A|----------------3-----------3--|5---5---5---5---5---5---5---5--|
E|3-----------3------------------|-------------------------------|
                                      And so  I   sing out:
  oooooooooooooooooooooooooooooooooooooooooooooooooooooooo
Refrain:
G|------- ------- ------- -------|------- ------- ------- -------|
D|-------------------------------|-------------------------------|
A|----------------3-----------3--|5-----------5---3--------------|
E|3-----------3------------------|------------------------5---4--|
  Hang                    on,     Sloopy,         Sloopy, hang on!


G|------- ------- ------- -------|------- ------- ------- -------|
D|-------------------------------|-------------------------------|
A|----------------3-----------3--|5-----------5---3--------------|
E|3-----------3------------------|------------------------5---4--|



G|------- ------- ------- -------|------- ------- ------- -------|
D|-------------------------------|-------------------------------|
A|----------------3-----------3--|5-----------5---3---3----------|
E|3-----------3------------------|------------------------5---4--|
  Hang                    on,     Sloopy,         Sloopy, hang on!


G|------- ------- ------- -------|------- ------- ------- -------|
D|-------------------------------|-------------------------------|
A|----------------3-----------3--|5-----------5---3--------------|
E|3-----------3------------------|------------------------5\-----|


Verse:
G|------- ------- ------- -------|------- ------- ------- -------|
D|-------------------------------|-------------------------------|
A|----------------3-----------3--|5-----------5---3--------------|
E|3-----------3------------------|------------------------5\-----|
  Sloopy  wears a red dress,  yeah,           as  old  as    the


G|------- ------- ------- -------|------- ------- ------- -------|
D|-------------------------------|-------------------------------|
A|----------------3-----------3--|5-----------5---3--------------|
E|3-----------3------------------|------------------------5\-----|
  Nil,                                                    But when
  oooooooooooooooooooooooooooooooooooooooooooooooooooooooo

G|------- ------- ------- -------|------- ------- ------- -------|
D|-------------------------------|-------------------------------|
A|----------------3-----------3--|5-----------5---3--------------|
E|3-----------3------------------|------------------------5\-----|
  Sloopy  wears   red dress,  yeah,   you know it gives me   the
              that

G|------- ------- ------- -------|------- ------- ------- -------|
D|-------------------------------|-------------------------------|
A|----------------3-----------3--|5-----------5---3--------------|
E|3-----------3------------------|------------------------5---4--|
  chills,         oh,         oh.
  oooooooooooooooooooooooooooooooooooooooooooooooooooooooo

G|------- ------- ------- -------|------- ------- ------- -------|
D|-------------------------------|-------------------------------|
A|----------------3-----------3--|5-----------5---3--------------|
E|3-----------3------------------|------------------------5---4--|
  Sloopy, when I  see you     wal  -  kin',       walkin' down the


G|------- ------- ------- -------|------- ------- ------- -------|
D|-------------------------------|-------------------------------|
A|----------------3-----------3--|5-----------5---3--------------|
E|3-----------3------------------|------------------------5---4--|
  street,                                                 I   say
  oooooooooooooooooooooooooooooooooooooooooooooooooooooooo

G|------- ------- ------- -------|------- ------- ------- -------|
D|-------------------------------|-------------------------------|
A|----------------3-----------3--|5-----------5---3--------------|
E|3-----------3------------------|------------------------5---4--|
  don't worry,    Sloopy      girl,       you be- long    to  me.


G|------- ------- ------- -------|------- ------- ------- -------|
D|-------------------------------|-------------------------------|
A|----------------3-----------3-/|5---5---5---5---5---5---5---5--|
E|3-----------3------------------|-------------------------------|
                                      And so  I   sing out:
  oooooooooooooooooooooooooooooooooooooooooooooooooooooooo
Refrain:
G|------- ------- ------- -------|------- ------- ------- -------|
D|-------------------------------|-------------------------------|
A|----------------3-----------3--|5-----------5---5---3---2------|
E|3-----------3------------------|----------------------------5--|
  Hang                    on,     Sloopy,         Sloopy, hang on!


G|------- ------- ------- -------|------- ------- ------- -------|
D|-------------------------------|-------------------------------|
A|----------------3-----------3--|5-----------5---5---3---2------|
E|3-----------3------------------|----------------------------5--|



G|------- ------- ------- -------|------- ------- ------- -------|
D|-------------------------------|-------------------------------|
A|----------------3-----------3--|5-----------5---5---3---2------|
E|3-----------3------------------|----------------------------5--|
  Hang                    on,     Sloopy,         Sloopy, hang on,


G|------- ------- ------- -------|------- ------- ------- -------|
D|-------------------------------|-------------------------------|
A|----------------3-----------3--|5-----------5---3--------------|
E|3-----------3------------------|------------------------5---4--|
                  yeah,   yeah,   yeah,   yeah!

Break (solo):
G|------- ------- ------- -------|------- ------- ------- -------|
D|-------------------------------|-------------------------------|
A|----------------3---3-------3--|5---5-------5---3---3----------|
E|3---3-------3------------------|------------------------5---4--|



G|------- ------- ------- -------|------- ------- ------- -------|
D|-------------------------------|-------------------------------|
A|----------------3---3-------3--|5---5-------5---3---3----------|
E|3---3-------3------------------|------------------------5---4--|



G|------- ------- ------- -------|------- ------- ------- -------|
D|-------------------------------|-------------------------------|
A|----------------3---3-------3--|5---5-------5---3---3---2------|
E|3---3-------3------------------|----------------------------5--|



G|------- ------- ------- -------|------- ------- ------- -------|
D|-------------------------------|-------------------------------|
A|----------------3---3-------3--|5---5-------5---3---3---2------|
E|3---3-------3------------------|----------------------------5--|



G|------- ------- ------- -------|------- ------- ------- -------|
D|-------------------------------|-------------------------------|
A|----------------3-----------3--|5-----------5---3--------------|
E|3-----------3------------------|------------------------5\-----|



G|------- ------- ------- -------|------- ------- ------- -------|
D|-------------------------------|-------------------------------|
A|----------------3-----------3--|5-----------5---3--------------|
E|3-----------3------------------|------------------------5\-----|


Verse:
G|------- ------- ------- -------|------- ------- ------- -------|
D|-------------------------------|-------------------------------|
A|----------------3-----------3--|5-----------5---3--------------|
E|3-----------3------------------|------------------------5\-----|
  Sloopy, let your hair down, girl,           let hang down  on
                                                it

G|------- ------- ------- -------|------- ------- ------- -------|
D|-------------------------------|-------------------------------|
A|----------------3-----------3--|5-----------5---3--------------|
E|3-----------3------------------|------------------------5\-----|
  me,
  oooooooooooooooooooooooooooooooooooooooooooooooooooooooo

G|------- ------- ------- -------|------- ------- ------- -------|
D|-------------------------------|-------------------------------|
A|----------------3-----------3--|5-----------5---3--------------|
E|3-----------3------------------|------------------------5\-----|
  Sloopy, let your hair down, girl,           let hang down  on
                                                it

G|------- ------- ------- -------|------- ------- ------- -------|
D|-------------------------------|-------------------------------|
A|----------------3-----------3--|5-----------5---3--------------|
E|3-----------3------------------|------------------------5\-----|
  me,             yeah,                           Come on,
  oooooooooooooooooooooooooooooooooooooooooooooooooooooooo

G|------- ------- ------- -------|------- ------- ------- -------|
D|-------------------------------|-------------------------------|
A|----------------3-----------3--|5-----------5---3--------------|
E|3-----------3------------------|------------------------5---4--|
  Sloopy,                                     oh, come on,
             (come on,    come on)

G|------- ------- ------- -------|------- ------- ------- -------|
D|-------------------------------|-------------------------------|
A|----------------3-----------3--|5-----------5---3--------------|
E|3-----------3------------------|------------------------5---4--|
  Sloopy,                                   Well, come on,    Sloo-
             (come on,    come on)

G|------- ------- ------- -------|------- ------- ------- -------|
D|-------------------------------|-------------------------------|
A|----------------3-----------3--|5-----------5---3--------------|
E|3-----------3------------------|------------------------5---4--|
      py,                                   well, come on,    Sloo-
             (come on,    come on)

G|------- ------- ------- -------|------- ------- ------- -------|
D|-------------------------------|-------------------------------|
A|----------------3-----------3--|5-----------5---3--------------|
E|3-----------3------------------|------------------------5---4--|
      py,                                 Well, it feels  so
             (come on,    come on)

G|------- ------- ------- -------|------- ------- ------- -------|
D|-------------------------------|-------------------------------|
A|----------------3-----------3--|5-----------5---3--------------|
E|3-----------3------------------|------------------------5---4--|
  good,                               you know it feels   so
             (come on,    come on)

G|------- ------- ------- -------|------- ------- ------- -------|
D|-------------------------------|-------------------------------|
A|----------------3-----------3--|5-----------5---3--------------|
E|3-----------3------------------|------------------------5---4--|
  good,                             Well, shake   shake   shake it,
             (come on,    come on)            it,     it,

G|------- ------- ------- -------|------- ------- ------- -------|
D|-------------------------------|-------------------------------|
A|----------------3-----------3--|5-----------5---5---3---2------|
E|3-----------3------------------|----------------------------5--|
  Sloopy,                             oh, shake   shake   shake it,
             (come on,    come on)            it,     it,

G|------- ------- ------- -------|------- ------- ------- -------|
D|-------------------------------|-------------------------------|
A|----------------3-----------3-/|5---5---5---5---5---5---5---5--|
E|3-----------3------------------|-------------------------------|
  yeah!
             (come on,    come on)

G|------- ------- ------- -------|
D|-------------------------------|
A|5---5---5---5---5---3---2------|
E|----------------------------5--|


Refrain:
G|------- ------- ------- -------|------- ------- ------- -------|
D|-------------------------------|-------------------------------|
A|----------------3---3-------3--|5---5-------5---3---3---2------|
E|3---3-------3------------------|----------------------------5--|
  Hang                    on,     Sloopy,         Sloopy, hang on,


G|------- ------- ------- -------|------- ------- ------- -------|
D|-------------------------------|-------------------------------|
A|----------------3---3-------3--|5---5-------5---5---3---2------|
E|3---3-------3------------------|----------------------------5--|
          yeah,   yeah,   yeah,   yeah,   yeah,   yeah!   Oh,


G|------- ------- ------- -------|------- ------- ------- -------|
D|-------------------------------|-------------------------------|
A|----------------3---3-------3--|5---5-------5---5---3---2------|
E|3---3-------3------------------|----------------------------5--|
  hang                    on,     Sloopy,         Sloopy, hang on!


G|------- ------- ------- -------|------- ------- ------- -------|
D|-------------------------------|-------------------------------|
A|----------------3---3-------3--|5---5-------5---5---3---2------|
E|3---3-------3------------------|----------------------------5--|
                  yeah,   yeah,   yeah,   yeah,   yeah,   yeah!

Outro:
G|------- ------- ------- -------|------- ------- ------- -------|
D|-------------------------------|-------------------------------|
A|----------------3---3-------3--|5---5-------5---5---3---2------|
E|3---3-------3------------------|----------------------------5-\|
  Hang                    on,     Sloopy,         Sloopy, hang on!


G|------- ------- ------- -------|------- ------- ------- -------|
D|-------------------------------|-------------------------------|
A|--------------------3---3------|----5---5-----------3---3------|
E|3---3---3----------------------|-------------------------------|



G|------- ------- ------- -------|------- ------- ------- -------|
D|-------------------------------|-------------------------------|
A|-------------------------------|-------------------------------|
E|3------------------------------|-------------------------------|

Please e-mail me for any corrections, or write a comment.
            
Submit corrections

↑ Back to top | Tablatures and chords for acoustic guitar and electric guitar, ukulele, drums are parodies/interpretations of the original songs. You may use it for private study, scholarship, research or language learning purposes only