» » »

Mccoys - Hang On Sloopy Tabs

Artists:  A B C D E F G H I J K L M N O P Q R S T U V W X Y Z # 

Hang On Sloopy Tabs

(ver. 3) Click to play this song!
Mccoys
 Rating:
2.9/5 (30 votes)

 Hang On Sloopy lessons Tabs too difficult? Try these video lessons and learn fast
 
                 Intro
  Q=105
  N.C.
 4/4
  Gtr I (El. Gtr.)
                            PM----------------------------|
  W          H    Q   Q     e E E E e E E E   e E E E e E Q
|----------|--------------|-----------------|----------------||
|----------|--------------|-----------------|----------------||
|----------|--------------|-----------------|----------------||
|----------|--------------|-----------------|----------------||
|----------|--------------|---------3-----3-|-5-----5-3------||
|----------|---------10\--|-3-----3---------|-------------5--||


 Chorus
  N.C.       Am/C  D        Am/C      G/B      Am/C       D        Am/C
  Gtr I
  Q.   E Q.    E   Q.     E Q   Q     Q.     E Q.     E   Q.     E Q   Q
|----------------|------------------|-------------------|------------------|
|----------------|------------------|-------------------|------------------|
|----------------|------------------|-------------------|------------------|
|----------------|------------------|-------------------|------------------|
|--------3-----3-|-5------5-3-------|----------3------3-|-5------5-3-------|
|-3----3---------|--------------5---|-3------3----------|--------------5---|
|
| Gtr II (El. Gtr.)
| H      Q   e E   e  E e e e e e E   e  e e e e  e e E   e  E e e e e e E
|------------5---|-5----5---5---5---|-3----3---5----5---|-5----5---5---5---|
|------------5---|-7----7---5---5---|-3----3---5----5---|-7----7---5---5---|
|------------5---|-7----7---5---5---|-4----4---5----5---|-7----7---5---5---|
|----------------|------------------|-------------------|------------------|
|----------------|------------------|-------------------|------------------|
|----------------|------------------|-------------------|------------------|


  G/B      Am/C       D        Am/C      G/B      Am/C       D        Am/C
  Q.     E Q.     E   Q.     E Q   Q     Q.     E Q.     E   Q.     E Q   Q
|-------------------|------------------|-------------------|------------------||
|-------------------|------------------|-------------------|------------------||
|-------------------|------------------|-------------------|------------------||
|-------------------|------------------|-------------------|------------------||
|----------3------3-|-5------5-3-------|----------3------3-|-5------5-3-------||
|-3------3----------|--------------5---|-3------3----------|--------------5---||
|
| e  e e e e  e e E   e  E e e e e e E   e  e e e e  e e E   e  E e e e e e E
|-3----3---5----5---|-5----5---5---5---|-3----3---5----5---|-5----5---5---5---||
|-3----3---5----5---|-7----7---5---5---|-3----3---5----5---|-7----7---5---5---||
|-4----4---5----5---|-7----7---5---5---|-4----4---5----5---|-7----7---5---5---||
|-------------------|------------------|-------------------|------------------||
|-------------------|------------------|-------------------|------------------||
|-------------------|------------------|-------------------|------------------||


   Verses 1 & 2
        G/B     C/E       D/F#     Am/C      G/B     C/E       D/F#     Am/C
    e E E E e E E E   e E  E E e E Q     e E E E e E E E   e E  E E e E Q
||------------------|------------------|-----------------|-------------------|
||o-----------------|------------------|-----------------|-------------------|
||------------------|------------------|-----------------|-------------------|
||------------------|------------------|-----------------|-------------------|
||o---------3-----3-|-5------5-3-------|---------3-----3-|-5------5-3--------|
||--3-----3---------|--------------5---|-3-----3---------|--------------5----|
|
|   Q   e e q   e e   q    e e q   e e   q   e e q   e e   Q    e e q   e E
||------3-------8---|-----10-------5---|-----3-------8---|-----10-------5----|
||o-----3-------8---|-----10-------5---|-----3-------8---|-----10-------5----|
||------4-------9---|-----11-------5---|-----4-------9---|-----11-------5----|
||------------------|------------------|-----------------|-------------------|
||o-----------------|------------------|-----------------|-------------------|
||------------------|------------------|-----------------|-------------------|


      G/B     C/E       D/F#     Am/C      G/B     C/E       D/F#     Am/C
  e E E E e E E E   e E  E E e E Q     e E E E e E E E   e E  E E e E Q
|-----------------|------------------|-----------------|------------------|
|-----------------|------------------|-----------------|------------------|
|-----------------|------------------|-----------------|------------------|
|-----------------|------------------|-----------------|------------------|
|---------3-----3-|-5------5-3-------|---------3-----3-|-5------5-3-------|
|-3-----3---------|--------------5---|-3-----3---------|--------------5---|
|
| Q   e e q   e e   q    e e q   e e   q   e e q   e e   Q    e e q   e E
|-----3-------8---|-----10-------5---|-----3-------8---|-----10-------5---|
|-----3-------8---|-----10-------5---|-----3-------8---|-----10-------5---|
|-----4-------9---|-----11-------5---|-----4-------9---|-----11-------5---|
|-----------------|------------------|-----------------|------------------|
|-----------------|------------------|-----------------|------------------|
|-----------------|------------------|-----------------|------------------|


      G/B     C/E       D/F#     Am/C      G/B     C/E       D/F#     Am/C
  e E E E e E E E   e E  E E e E Q     e E E E e E E E   e E  E E e E Q
|-----------------|------------------|-----------------|------------------|
|-----------------|------------------|-----------------|------------------|
|-----------------|------------------|-----------------|------------------|
|-----------------|------------------|-----------------|------------------|
|---------3-----3-|-5------5-3-------|---------3-----3-|-5------5-3-------|
|-3-----3---------|--------------5---|-3-----3---------|--------------5---|
|
| Q   e e q   e e   q    e e q   e e   q   e e q   e e   Q    e e q   e E
|-----3-------8---|-----10-------5---|-----3-------8---|-----10-------5---|
|-----3-------8---|-----10-------5---|-----3-------8---|-----10-------5---|
|-----4-------9---|-----11-------5---|-----4-------9---|-----11-------5---|
|-----------------|------------------|-----------------|------------------|
|-----------------|------------------|-----------------|------------------|
|-----------------|------------------|-----------------|------------------|


      G/B     C/E       D/F#     Am/C      G/B     C/E           D/F#
  e E E E e E E E   e E  E E e E Q     e E E E e E E E   e e e e e e e e
|-----------------|------------------|-----------------|-----------------||
|-----------------|------------------|-----------------|-----------------||
|-----------------|------------------|-----------------|-----------------||
|-----------------|------------------|-----------------|-----------------||
|---------3-----3-|-5------5-3-------|---------3-----3-|-5-5-5-5-5-5-5-5-||
|-3-----3---------|--------------5---|-3-----3---------|-----------------||
|
| Q   e e q   e e   q    e e q   e e   q   e e q   e e   H       e e e e
|-----3-------8---|-----10-------5---|-----3-------8---|-----------------||
|-----3-------8---|-----10-------5---|-----3-------8---|---------3-3-3-3-||
|-----4-------9---|-----11-------5---|-----4-------9---|---------2-2-2-2-||
|-----------------|------------------|-----------------|---------4-4-4-4-||
|-----------------|------------------|-----------------|-----------------||
|-----------------|------------------|-----------------|-----------------||


 Chorus
      G/B Am/C       D        Am/C      G/B      Am/C       D        Am/C
  Q.    E Q.     E   Q.     E Q   Q     Q.     E Q.     E   Q.     E Q   Q
|------------------|------------------|-------------------|------------------|
|------------------|------------------|-------------------|------------------|
|------------------|------------------|-------------------|------------------|
|------------------|------------------|-------------------|------------------|
|---------3------3-|-5------5-3-------|----------3------3-|-5------5-3-------|
|-3-----3----------|--------------5---|-3------3----------|--------------5---|
|
| q   e e e  e e E   e  E e e e e e E   e  e e e e  e e E   e  E e e e e e E
|-----3---5----5---|-5----5---5---5---|-3----3---5----5---|-5----5---5---5---|
|-----3---5----5---|-7----7---5---5---|-3----3---5----5---|-7----7---5---5---|
|-----4---5----5---|-7----7---5---5---|-4----4---5----5---|-7----7---5---5---|
|------------------|------------------|-------------------|------------------|
|------------------|------------------|-------------------|------------------|
|------------------|------------------|-------------------|------------------|


  1.
  G/B      Am/C       D        Am/C
  Q.     E Q.     E   Q.     E Q   Q
|-------------------|------------------|
|-------------------|------------------|
|-------------------|------------------|
|-------------------|------------------|
|----------3------3-|-5------5-3-------|
|-3------3----------|--------------5---|
|
| e  e e e e  e e E   e  E e e e e e E
|-3----3---5----5---|-5----5---5---5---|
|-3----3---5----5---|-7----7---5---5---|
|-4----4---5----5---|-7----7---5---5---|
|-------------------|------------------|
|-------------------|------------------|
|-------------------|------------------|


  G/B      Am/C       D        Am/C
  Q.     E Q.     E   Q.     E Q   Q
|-------------------|-------------------||
|-------------------|------------------o||
|-------------------|-------------------||
|-------------------|-------------------||
|----------3------3-|-5------5-3-------o||
|-3------3----------|--------------5----||
|
| e  e e e e  e e E   e  E e e e e e E
|-3----3---5----5---|-5----5---5---5----||
|-3----3---5----5---|-7----7---5---5---o||
|-4----4---5----5---|-7----7---5---5----||
|-------------------|-------------------||
|-------------------|------------------o||
|-------------------|-------------------||


  2.
  G/B      Am/C       D        Am/C      G/B      Am/C       D
  Q.     E Q.     E   Q.     E Q   Q     Q.     E Q.     E   Q.     E Q  Q
|-------------------|------------------|-------------------|------------------||
|-------------------|------------------|-------------------|------------------||
|-------------------|------------------|-------------------|------------------||
|-------------------|------------------|-------------------|------------------||
|----------3------3-|-5------5-3-------|----------3------3-|-5------5-3-------||
|-3------3----------|--------------5---|-3------3----------|-------------5----||
|
| e  e e e e  e e E   e  E e e e e e E   e  e e E e  e e E   e  E e e Q  E  E
|-3----3---5----5---|-5----5---5---5---|-3----3---5----5---|-5----5--------10-||
|-3----3---5----5---|-7----7---5---5---|-3----3---5----5---|-7----7-----------||
|-4----4---5----5---|-7----7---5---5---|-4----4---5----5---|-7----7-----------||
|-------------------|------------------|-------------------|------------------||
|-------------------|------------------|-------------------|------------------||
|-------------------|------------------|-------------------|------------------||


 Guitar Solo
  N.C.
  Gtrs I, II
   e E E E  e E E E    e E E E  Q   Q     e E E E e   E  E  E
|-------------------|------------------|----------------------|
|-------------------|------------------|----------------------|
|-------------------|------------------|----------------------|
|-------------------|------------------|----------------------|
|-----------3-----3-|--5-----5--3------|----------3---------3-|
|--3-----3----------|---------------5--|--3-----3-------------|
|
|  TP       TP         TP       TP  TP    TP
|  H        H          H        Q   Q     H       E   E  E  E
|-13-------13-------|-13-------13--13--|-15---------/15-18-20-|
|-15-------15-------|-15-------15--15--|-15-------------------|
|-------------------|------------------|----------------------|
|-------------------|------------------|----------------------|
|-------------------|------------------|----------------------|
|-------------------|------------------|----------------------|


   e     E     E     E     Q                  Q
|-------------------------------------------------------|
|-------------------------------------------------------|
|-------------------------------------------------------|
|-------------------------------------------------------|
|--5-----------------5-----3----------------------------|
|---------------------------------------------5---------|
|
|  E     E     E     E     E     S      +S    S  S  E
|-20b22-20b22-20b22-20b22-20b22-20b22==(20)r-18p15-18---|
|-------------------------------------------------------|
|-------------------------------------------------------|
|-------------------------------------------------------|
|-------------------------------------------------------|
|-------------------------------------------------------|


   e E  E  E  e      E       E     E       e     E     E     E     Q           Q
|---------------------------------------|-------------------------------------------------|
|---------------------------------------|-------------------------------------------------|
|---------------------------------------|-------------------------------------------------|
|---------------------------------------|-------------------------------------------------|
|-------------3--------------------3----|--5-----------------5-----3----------------------|
|--3-------3----------------------------|--------------------------------------5----------|
|
|  Q    E  E  E      S  +S   S  S  S  S    S  S  S  S  S  S  S  S  S  S  S  S  S  S  S  S
|-18------------------------------------|-------------------------------------------------|
|---------11-13b15==13r(13)-11----13-11-|-------------------------------------------------|
|------12----------------------12-------|-12p10----12p10----10----------------------------|
|---------------------------------------|-------12-------12----12p10----10----------------|
|---------------------------------------|----------------------------13----13p10----------|
|---------------------------------------|----------------------------------------13-10-13-|


   e    E E E e E   E E   e   E   E   E   Q       Q
|-----------------------|--------------------------------|
|-----------------------|--------------------------------|
|-----------------------|--------------------------------|
|-----------------------|--------------------------------|
|-------------3-------3-|-5-----------5---3--------------|
|--3--------3-----------|-------------------------5------|
|
|  E a  Q   E e S S E E   E   E   E   E   E   E   S S E
|-----------------------|--------------------------------|
|-------------3---3---3-|-5b7-5b7-5b7-5b7-5b7-5b7-----5--|
|-------------3---3---3-|-5b7-5b7-5b7-5b7-5b7-5b7-5p3-5--|
|-----------5---5---5---|--------------------------------|
|-10-8h10---------------|--------------------------------|
|-----------------------|--------------------------------|


  e E E E e E E E   e E E E Q  Q    e E E E e E E E   e E E E Q  Q
|-----------------|---------------|-----------------|---------------||
|-----------------|---------------|-----------------|---------------||
|-----------------|---------------|-----------------|---------------||
|-----------------|---------------|-----------------|---------------||
|---------3-----3-|-5-----5-3-----|---------3-----3-|-5-----5-3-----||
|-3-----3---------|------------5--|-3-----3---------|------------5--||
|
| E E Q   H         W               W                 W
|-----------------|---------------|-----------------|---------------||
|-3---------------|---------------|-----------------|---------------||
|-4---------------|---------------|-----------------|---------------||
|-----------------|---------------|-----------------|---------------||
|-----------------|---------------|-----------------|---------------||
|-----------------|---------------|-----------------|---------------||


   Verse 3
        G/B     C/E       D/F#     Am/C      G/B     C/E       D/F#     Am/C
    e E E E e E E E   e E  E E e E Q     e E E E e E E E   e E  E E e E Q     5x
||------------------|------------------|-----------------|--------------------||
||o-----------------|------------------|-----------------|-------------------o||
||------------------|------------------|-----------------|--------------------||
||------------------|------------------|-----------------|--------------------||
||o---------3-----3-|-5------5-3-------|---------3-----3-|-5------5-3--------o||
||--3-----3---------|--------------5---|-3-----3---------|--------------5-----||
|
|   Q   e E Q   e E   Q    e E Q   e E   Q   e E Q   e E   Q    e E Q   e E   5x
||------3-------8---|-----10-------5---|-----3-------8---|-----10-------5-----||
||o-----3-------8---|-----10-------5---|-----3-------8---|-----10-------5----o||
||------4-------9---|-----11-------5---|-----4-------9---|-----11-------5-----||
||------------------|------------------|-----------------|--------------------||
||o-----------------|------------------|-----------------|-------------------o||
||------------------|------------------|-----------------|--------------------||


      G/B     C/E       D/F#    Am/C      G/B     C/E
  Q.    E Q.    E   Q.     E Q  Q     Q.    E Q.    E
|-----------------|-----------------|-----------------|
|-----------------|-----------------|-----------------|
|-----------------|-----------------|-----------------|
|-----------------|-----------------|-----------------|
|---------3-----3-|-5------5-3------|---------3-----3-|
|-3-----3---------|-------------5---|-3-----3---------|
|
| Q   e E Q   e E   Q    e E Q  e E   Q   e E Q   e E
|-----3-------8---|-----10------5---|-----3-------8---|
|-----3-------8---|-----10------5---|-----3-------8---|
|-----4-------9---|-----11------5---|-----4-------9---|
|-----------------|-----------------|-----------------|
|-----------------|-----------------|-----------------|
|-----------------|-----------------|-----------------|


  D                 D/F#
  e e e e e e e e    e  e  e  e  e  e  e  e
|-----------------|-------------------------||
|-----------------|-------------------------||
|-----------------|-------------------------||
|-----------------|-------------------------||
|-5-5-5-5-5-5-5-5-|--5--5--5--5--5--5--5--5-||
|-----------------|-------------------------||
|
| e e e e e e e e    e  e  e  e  e  e  e  e
|-5-5-5-5-5-5-5-5-|-10-10-10-10-10-10-10-10-||
|-7-7-7-7-7-7-7-7-|-10-10-10-10-10-10-10-10-||
|-7-7-7-7-7-7-7-7-|-11-11-11-11-11-11-11-11-||
|-----------------|-------------------------||
|-----------------|-------------------------||
|-----------------|-------------------------||


   Out-Chorus
        G/B Am/C       D        Am/C
    Q.    E Q.     E   Q.     E Q   Q
||-------------------|------------------|
||o------------------|------------------|
||-------------------|------------------|
||-------------------|------------------|
||o---------3------3-|-5------5-3-------|
||--3-----3----------|--------------5---|
|
|   Q   e E e  E e E   e  E e E e E e E
||------3---5----5---|-5----5---5---5---|
||o-----3---5----5---|-7----7---5---5---|
||------4---5----5---|-7----7---5---5---|
||-------------------|------------------|
||o------------------|------------------|
||-------------------|------------------|


  G/B      Am/C       D        Am/C
  Q.     E Q.     E   Q.     E Q   Q
|-------------------|--------------------||
|-------------------|-------------------o||
|-------------------|--------------------||
|-------------------|--------------------||
|----------3------3-|-5------5-3--------o||
|-3------3----------|--------------5-----||
|
| e  E e E e  E e E   e  E e E e E e E
|-3----3---5----5---|-5----5---5---5-----||
|-3----3---5----5---|-7----7---5---5----o||
|-4----4---5----5---|-7----7---5---5-----||
|-------------------|--------------------||
|-------------------|-------------------o||
|-------------------|--------------------||


  G/B      Am/C       D        Am/C
  Q.     E Q.     E   Q.     E Q   Q
|-------------------|------------------|
|-------------------|------------------|
|-------------------|------------------|
|-------------------|------------------|
|----------3------3-|-5------5-3-------|
|-3------3----------|--------------5---|
|
| e  E e E e  E e E   e  E e E e E e E
|-3----3---5----5---|-5----5---5---5---|
|-3----3---5----5---|-7----7---5---5---|
|-4----4---5----5---|-7----7---5---5---|
|-------------------|------------------|
|-------------------|------------------|
|-------------------|------------------|


    G/B     C/E       D/F#      C/E     G/B
  E e e E E e e E   E  e  e E E e e e   e E Q  H
|-----------------|-------------------|-------------*|
|-----------------|-------------------|-------------*|
|-----------------|-------------------|-------------*|
|-----------------|-------------------|-------------*|
|-----------3-3---|----5--5-----3-3-3-|-------------*|
|---3-3-----------|-------------------|-3-----------*|
|
| E e e E E e e E   E  e  e E E e e e   e E Q  H
|---3-3-----8-8---|---10-10-----8-8-8-|-3-----------*|
|---3-3-----8-8---|---10-10-----8-8-8-|-3-----------*|
|---4-4-----9-9---|---11-11-----9-9-9-|-4-----------*|
|-----------------|-------------------|-------------*|
|-----------------|-------------------|-------------*|
|-----------------|-------------------|-------------*|
            
Submit corrections


        Hang On Sloopy lessons Hard to play? Try these video lessons and learn fast Hang On Sloopy lessons
        
↑ Back to top | Tablatures and chords for acoustic guitar and electric guitar, ukulele, drums are parodies/interpretations of the original songs. You may use it for private study, scholarship, research or language learning purposes only