» » »

Mayday Parade - When I Get Home Youre So Dead Tabs

Artists:  A B C D E F G H I J K L M N O P Q R S T U V W X Y Z # 

When I Get Home Youre So Dead Tabs

(ver. 2) Click to play this song!
Mayday Parade
 Rating:
4/5 (4 votes)

 When I Get Home Youre So Dead lessons Tabs too difficult? Try these video lessons and learn fast
 
                Tab Written By: Gabriel Lopez (AndCambria3)

Well, this is one of the greatest songs every written, and I HAD to TRY and tab it out,
hopefully I did a good job. The Intro may not be SPOT-ON, but  in my opinion, I think it
just fine. And for this one I actually got the lead in there, except for the last lead 
near the end of the song. The kinda solo-ish outro. But I think it's a pretty good
Let me know what you think! Thank youuu!
[[:

e|--------------------------------------|
B|---55-555---66-666---66-666-----------|
G|---55-555---55-555---55-555---55-555--|
D|---77-777---77-777---77-777---55-555--|
A|-8-88-888-7-77-777-5-55-555-3-33-333--|
D|--------------------------------------|

e|---------------------------------|
B|---55-555---66-666---66-666------|
G|---55-555---55-555---55-555------|
D|---77-777---77-777---77-777-5-5--|
A|-8-88-888-7-77-777-5-55-555-3-3--|
D|---------------------------------|
                              . .

Verse:
e|-------------------------------------|
B|-------------------------------------|
G|-------------------------------------|
D|-77777777-33333333-0000000000000000--|
A|-77777777-33333333-0000000000000000--|
D|-77777777-33333333-0000000000000000--|

e|---------------------------------|
B|---------------------------------|
G|---------------------------------|
D|-77777777-33333333-00000000-0-0--|
A|-77777777-33333333-00000000-0-0--|
D|-77777777-33333333-00000000-0-0--|

Chorus:
e|-------------------------------------|
B|-------------------------------------|
G|-------------------------------------|
D|-77777777-33333333-55555555-2-2-3-3--|
A|-77777777-33333333-55555555-2-2-3-3--|
D|-77777777-33333333-55555555-2-2-3-3--|

Lead:
e|-----------------------------------------------|
B|-----------------------------------------------|
G|----7s9-999----7-9-999----7-9-999--10-9-12-10--|
D|-7--x-s-xxx-3--x-x-xxx-5--x-x-xxx--x--x-x--x---|
A|-7--5s7-777-3--5s7-777-5--5s7-777--8--7-10-8---|
D|-7----------3----------5-----------------------|

e|------------------|
B|----5-------------|
G|----5-------------|
D|----2----10-12-7--|
A|-00-0-------------|
D|-00-0-------------|
   ..

e|--------------------------------------|
B|--------------------------------------|  X 2
G|--------------------------------------|
D|-7------------------------------------|
A|-7-777777777777777-33333333-00000000--|
D|-7-777777777777777-33333333-00000000--|
     ............... ........ ........

e|----------------------------------|
B|----------------------------------|
G|----------------------------------|
D|-7-7-7-7-3-3-3-3-0-0-0-0-0-0-0-0--|
A|-7-7-7-7-3-3-3-3-0-0-0-0-0-0-0-0--|
D|-7-7-7-7-3-3-3-3-0-0-0-0-0-0-0-0--|

e|-----------------------1--|
B|-----------------------1--|
G|-----------------------2--|
D|-7-7-7-7-3-3-3-3-------2--|
A|-7-7-7-7-3-3-3-3-00-00-0--|
D|-7-7-7-7-3-3-3-3-00-00----|
                   .. ..

Chorus:
e|-------------------------------------|
B|-------------------------------------|
G|-------------------------------------|
D|-77777777-33333333-55555555-2-2-3-3--|
A|-77777777-33333333-55555555-2-2-3-3--|
D|-77777777-33333333-55555555-2-2-3-3--|

Lead:
e|-----------------------------------------------|
B|-----------------------------------------------|
G|----7s9-999----7-9-999----7-9-999--10-9-12-10--|
D|-7--x-s-xxx-3--x-x-xxx-5--x-x-xxx--x--x-x--x---|
A|-7--5s7-777-3--5s7-777-5--5s7-777--8--7-10-8---|
D|-7----------3----------5-----------------------|

e|--------------------------------------|
B|----5------------------5--------------|
G|----5------------------5--------------|
D|----2----10-12-7-------2----10-12-17--|
A|-00-0---------------00-0--------------|
D|-00-0---------------00-0--------------|
   ..                 ..

e|-----------------------------------------------------------------------|
B|-----------------------------------------------------------------------|
G|-----------------------------------------------------------------------|
D|-7777777777777777-3333333333333333-7777777777777777-33333333-00000000--|
A|-7777777777777777-3333333333333333-7777777777777777-33333333-00000000--|
D|-7777777777777777-3333333333333333-7777777777777777-33333333-00000000--|

e|---------------------------------------------------------|
B|---------------------------------------------------------|
G|---------------------------------------------------------|
D|---------------------------------------------------------|
A|--------7-7-7---------7-7-7---------3-3-3---------3-3-3--|
D|-777777-7-7-7--777777-7-7-7--333333-3-3-3--333333-3-3-3--|
   ...... . . .  ...... . . .  ...... . . .  ...... . . .

e|------------------------------------------------|
B|------------------------------------------------|
G|------------------------------------------------|
D|------------------------------------------------|
A|--------7-7-7---------7-7-7---------3-3-3--0-0--|
D|-777777-7-7-7--777777-7-7-7--333333-3-3-3--0-0--|
   ...... . . .  ...... . . .  ...... . . .  . .

e|---------------------------------------|
B|---55-555---66-666---66-666------------|
G|---55-555---55-555---55-555------------|
D|---77-777---77-777---77-777--22-3-333--|
A|-8-88-888-7-77-777-5-55-555--22-3-333--|
D|-----------------------------22-3-333--|

e|------------------|
B|------------------|
G|------------------|
D|-7----0--3-2-3-5--|
A|-7----0--3-2-3-5--|
D|-7----0--3-2-3-5--|

Chorus:
e|-------------------------------------|
B|-------------------------------------|
G|-------------------------------------|
D|-77777777-33333333-55555555-2-2-3-3--|
A|-77777777-33333333-55555555-2-2-3-3--|
D|-77777777-33333333-55555555-2-2-3-3--|

Lead:
e|-----------------------------------------------|
B|-----------------------------------------------|
G|----7s9-999----7-9-999----7-9-999--10-9-12-10--|
D|-7--x-s-xxx-3--x-x-xxx-5--x-x-xxx--x--x-x--x---|
A|-7--5s7-777-3--5s7-777-5--5s7-777--8--7-10-8---|
D|-7----------3----------5-----------------------|

END
            
Submit corrections


        When I Get Home Youre So Dead lessons Hard to play? Try these video lessons and learn fast When I Get Home Youre So Dead lessons
        
↑ Back to top | Tablatures and chords for acoustic guitar and electric guitar, ukulele, drums are parodies/interpretations of the original songs. You may use it for private study, scholarship, research or language learning purposes only