» » »

Mayday Parade - The End Tabs

Artists:  A B C D E F G H I J K L M N O P Q R S T U V W X Y Z # 

The End Tabs

(ver. 2) Click to play this song!
Mayday Parade
 Rating:
2.7/5 (28 votes)

 The End lessons Tabs too difficult? Try these video lessons and learn fast
 
                (VERSE 1)

Guitar 1 (0:00) - Clean/Distorted-ish

D#|----------------------|-----------------------|-----------------------|----------------------|
A#|----------------------|-----------------------|-----------------------|----------------------|
F#|-------0-------0------|--------0-------0------|--------0-------0------|--------0-------0-----|x3
C#|----4-------4-------4-|-----5-------5-------5-|-----5-------5-------5-|-----4-------4-------4|
G#|-3-------3-------3----|--7-------7-------7----|--5-------5-------5----|--5-------5-------5---|
C#|----------------------|-----------------------|-----------------------|----------------------|
             B                      Ebm                     F#/C#                    C#

   At "so we drive"... (0:18) 
                                                                              (first time only)
D#|----------------------|-----------------------|-----------------------||-----------------------|
A#|----------------------|-----------------------|-----------------------||-----------------------|
F#|-------0-------0------|--------0-------0------|--------0-------0------||--------0-------0------| x2
C#|----4-------4-------4-|-----4-------4-------4-|-----5-------5-------5-||-----5-------5-------5-|
G#|-3-------3-------3----|--5-------5-------5----|--7-------7-------7----||--5-------5-------5----|
C#|----------------------|-----------------------|-----------------------||-----------------------|
            B                        C#                     Ebm                    F#/C#
                              
                                                                          |-----------------------|
                                                        (2nd time only) - |-----------------------|
                                                                          |--------0-------0------| -2nd 
                                                                          |-----9-------9---------|  time
                                                                          |--7-------7-------7----|(hold 7)
                                                                          |-----------------------|
                                                                                     F#
Guitar 2 (0:18) - Distorted

D#|--15~---14~---12~---8~--|--15~---14~---12~--|
A#|------------------------|-------------------|
F#|------------------------|-------------------|
C#|------------------------|-------------------|
G#|------------------------|-------------------|
C#|------------------------|-------------------|

(PRE-CHORUS)

Guitar 1 (0:30) - Distorted

D#|--------------------------------------------------------------|
A#|--------------------------------------------------------------|
F#|--------------------------------------------------------------|
C#|-22222222--1010101010101010--12121212121212121212121212121212-| x2
G#|-22222222--1010101010101010--12121212121212121212121212121212-|
C#|-22222222--1010101010101010--12121212121212121212121212121212-|
       (8)          (8)                       (12)              

Guitar 2 (about 0:31) - Distorted

D#|--------------------2-3~--/3-2-0----------2-3~--/7--5--3--2~---|
A#|------------------3--------------3~-----3----------------------|
F#|---------------/4--------------------/4------------------------| (cleaner sound)
C#|---------------------------------------------------------------|
G#|---------------------------------------------------------------|
C#|---------------------------------------------------------------|
   How can you think...

                                 or

D#|---------------------------------------------------------------|
A#|--------------------7-8~--/8-7-----------7-8~--/12--10--8--7~--|
F#|------------------7------------9-7~----7-----------------------| (heavier sound)
C#|---------------/9-------------------/9-------------------------|
G#|---------------------------------------------------------------|
C#|---------------------------------------------------------------|
   How can you think...

(CHORUS)

Guitar 1 (0:43) - Distorted

D#|------------------------------------------------------------------------------------------|
A#|------------------------------------------------------------------------------------------|
F#|-----------------------------------------------------------------------99999999--77777777-| x2
C#|-5555555555555555--0000000000000000--10101010101010101010101010101010--99999999--77777777-|
G#|-5555555555555555--0000000000000000--10101010101010101010101010101010--77777777--55555555-|
C#|-5555555555555555--0000000000000000--10101010101010101010101010101010---------------------|
          (16)               (16)                     (16)                   (8)       (8)
                                                                           
Guitar 2 (0:43) - Distorted                          
                      
D#|------3---5---3---|
A#|----3---3---3---3-|
F#|--4---------------| x8     (cleaner sound) - I recommend this one!
C#|------------------|
G#|------------------|
C#|------------------|
 
           or

D#|-------------------|
A#|------8---10---8---|
F#|----7---7----7---7-| x8    (heavier sound)
C#|--9----------------|
G#|-------------------|
C#|-------------------|

(REPEAT VERSE) 
(REPEAT PRE-CHORUS)

(POST-CHORUS)

Guitar 1 (2:16) - Distorted

D#|----------------------------------|
A#|----------------------------------|
F#|----------------------------------|
C#|-10101010101010101010101010101010-|
G#|-10101010101010101010101010101010-|
C#|-10101010101010101010101010101010-|
                  (16)
Guitar 2 (2:16) - Distorted 

D#|------3---5---3---|
A#|----3---3---3---3-|
F#|--4---------------|    
C#|------------------|
G#|------------------|
C#|------------------|

(BRIDGE/SOLO)

Guitar 1 (2:19) - Distorted

D#|----------------------------------------------------------------------------------------|
A#|----------------------------------------------------------------------------------------|
F#|----------------------------------------------------------------------------------------| x2
C#|-2222222222222222--10101010101010101010101010101010--5555555555555555--0000000000000000-|
G#|-2222222222222222--10101010101010101010101010101010--5555555555555555--0000000000000000-|
C#|-2222222222222222--10101010101010101010101010101010--5555555555555555--0000000000000000-|

Guitar 2 (2:19) - Heavily distorted
                
D#|------------------------------|--------------------------------------|-----------------------| --
A#|------------------------------|--------------/15-12h13h15-13-12~\-|-12h13h15-12--------------|   |
F#|-/12-12-11-12~--12h14-14-12~\-|-/12-12-11-11-------------------------|----------15b17-15b17--|   |
C#|------------------------------|--------------------------------------|-----------------------|   |
G#|------------------------------|--------------------------------------|-----------------------|   |
C#|------------------------------|--------------------------------------|-----------------------|   | x2
                                                                                                    |
D#|------------------|                                                                              |
A#|-/13-12-----------|                                                                              |
F#|-------12--12-12~-|                                                                              |
C#|---------14-------|                                                                              |
G#|------------------|                                                                              |
C#|------------------|                                                                            --
                                                                            
(2:28)     
                                                                               
D#|-10h12p10--10--------------------------------------|
A#|---------13--13-12h13h12--12-----------------------|
F#|------------------------14--14-12h14p12-11h12-12~\-| FIRST TIME, PLAY THIS
C#|---------------------------------------------------|
G#|---------------------------------------------------|
C#|---------------------------------------------------|

(2:41)

D#|-------------------10h12h14-12h14h15-14h15h17-15h17h18-18b19-|
A#|-12h13h15-13h15h17-------------------------------------------|
F#|-------------------------------------------------------------| SECOND TIME, play this
C#|-------------------------------------------------------------|
G#|-------------------------------------------------------------|
C#|-------------------------------------------------------------|

(PRE-CHORUS)- Same Guitar 1, slightly different Guitar 2, Guitar 3 plays harmonies...

Guitar 2 (2:43) - Distorted

D#|---------------------------------------------------------------|
A#|--------------------7-8~--/8-7-----------7-8~--/12--10--8--10--|
F#|------------------7------------9-7~----7-----------------------| 
C#|---------------/9-------------------/9-------------------------|
G#|---------------------------------------------------------------|
C#|---------------------------------------------------------------|

Guitar 3 (2:43) - Distorted

D#|---------------------10-10~--/10-5-/8-7~--------10-10~-7-5-12-10--|
A#|---------------/8-10---------------------/8-10--------------------|
F#|------------------------------------------------------------------| 
C#|------------------------------------------------------------------|
G#|------------------------------------------------------------------|
C#|------------------------------------------------------------------|

(FINAL CHORUS)- It changes here, be careful!!

Guitar 1 (2:56)

D#|--------------------------------------|
A#|--------------------------------------|
F#|--------------------------------------|
C#|-2----------10----------5----------0--|
G#|-2----------10----------5----------0--|
C#|-2----------10----------5----------0--|

D#|----------------------------------------------------------------------------------------|
A#|----------------------------------------------------------------------------------------|
F#|----------------------------------------------------------------------------------------|
C#|-2222222222222222--101010101010101010101010--10/12\10\9--5555555555555555--0000000000000000-|
G#|-2222222222222222--101010101010101010101010--10/12\10\9--5555555555555555--0000000000000000-|
C#|-2222222222222222--101010101010101010101010--10/12\10\9--5555555555555555--0000000000000000-|
          (16)                       (12)                          (16)              (16)

Guitar 2 (2:56) - Distorted: The exact same
Guitar 3 (2:56)- Distorted/Clean: Just strum this chord at the beginning, 
                 or you can play each note separately (if recording multiple guitars)

D#|-10-|
A#|-12-|
F#|-12-|
C#|----|
G#|----|
C#|----|

(OUTRO)

Guitar 1 (3:21)- End on this:

D#|---|
A#|---|
F#|---|
C#|-2-|
G#|-2-|
C#|-2-|

Guitar 2 (3:21) - Distorted Repeat until fade-out

D#|------3---5---3---|
A#|----3---3---3---3-|
F#|--4---------------|    
C#|------------------|
G#|------------------|
C#|------------------|            
Submit corrections


        The End lessons Hard to play? Try these video lessons and learn fast The End lessons
        
↑ Back to top | Tablatures and chords for acoustic guitar and electric guitar, ukulele, drums are parodies/interpretations of the original songs. You may use it for private study, scholarship, research or language learning purposes only