» » »

Mayday Parade - Kids In Love Tabs

Artists:  A B C D E F G H I J K L M N O P Q R S T U V W X Y Z # 

Kids In Love Tabs

(ver. 1) Click to play this song!
Mayday Parade
 Rating:
4/5 (4 votes)

 Kids In Love lessons Tabs too difficult? Try these video lessons and learn fast
 
                


Tuning:Drop D


Second guitar is at the bottom of the page. Thanks to that unregistered guy for 
the help on the second guitar.



Verse
e|-------------------------------------------------------------------------|
B|-------------------------------------------------------------------------|
G|-88888888-77777777-55555555-33333333-------------------------------------|
D|-88888888-88888888-55555555-33333333-66666666-11111111-66666666-88888888-| Repeat one more time
A|-66666666-55555555-33333333-11111111-66666666-11111111-66666666-88888888-|
D|-------------------------------------66666666-11111111-66666666-88888888-|
PM ******** ******** ******** ******** ******** ******** ******** ********


Chorus part 1
e|---------------------------------------------|
B|---------------------------------------------|
G|-8--------------8--------------8-------------|
D|-8-6-66-11-8-88-8-6-66-11-8-88-8-6-6-11-8-88-|
A|-6-6-66-11-8-88-6-6-66-11-8-88-6-6-6-11-8-88-|
D|---6-66-11-8-88---6-66-11-8-88---6-6-11-8-88-|

Chorus part 2
e|-------------------------------------------------------------------------------------------|
B|-------------------------------------------------------------------------------------------|
G|-------------------88888888----------------------------5555-3333---------------------------|
D|-66666666-88888888-88888888-66666666-88888888-55555555-5555-3333-6666666666666666-88888888-|
A|-66666666-88888888-66666666-66666666-88888888-55555555-3333-1111-6666666666666666-88888888-|
D|-66666666-88888888----------66666666-88888888-55555555-----------6666666666666666-88888888-|


Verse
e|-------------------------------------------------------------------------|
B|-------------------------------------------------------------------------|
G|-88888888-77777777-55555555-33333333-------------------------------------|
D|-88888888-88888888-55555555-33333333-66666666-11111111-66666666-88888888-| Repeat one more time
A|-66666666-55555555-33333333-11111111-66666666-11111111-66666666-88888888-|
D|-------------------------------------66666666-11111111-66666666-88888888-|
PM ******** ******** ******** ******** ******** ******** ******** ********


Bridge
e|---------------------|
B|---------------------|
G|-88---88---88---88---|
D|-88-6-88-8-88-6-88-8-| Repeat this through the whole bridge.
A|-66-6-66-8-66-6-66-8-|
D|----6----8----6----8-|


Breakdown
e|----------------------------|
B|----------------------------|
G|-88----------5~-3~----------|
D|-88-66-88-55-5~-3~-6~-6~-8~-|
A|-66-66-88-55-3~-1~-6~-6~-8~-|
D|----66-88-55-------6~-6~-8~-|


Final Chorus
e|-------------------------------------------------------------------------|
B|-------------------------------------------------------------------------|
G|-88888888----------------------------5555-3333---------------------------|
D|-88888888-66666666-88888888-55555555-5555-3333-6666666666666666-88888888-| Repeat one more time
A|-66666666-66666666-88888888-55555555-3333-1111-6666666666666666-88888888-|
D|----------66666666-88888888-55555555-----------6666666666666666-88888888-|

Outro
e|------------------------------------------|
B|------------------------------------------|
G|-88-8------88-8------88-8------8----------|
D|-88-8-66-6-88-8-88-8-88-8-66-6-8-88-88-1~-|
A|-66-6-66-6-68-6-88-8-66-6-66-6-6-88-88-1~-|
D|------66-6------88-8------66-6---88-88-1~-|



Second guitar part

Intro:                                              (figure out strumming)
e|-6---6---6-4-4-3-3----------------------------------------------------------|
B|---4---4----4---4--6-6-6-66-6-3-3-3-33-3-1-11-3-33-4444444444444444-66666666|
G|----------------------------------------------------------------------------|
D|----------------------------------------------------------------------------|
A|----------------------------------------------------------------------------|
E|----------------------------------------------------------------------------|

Verse: 2X
e|-66666666-4444-3333--------------------------------------------------------|
B|--------------------66666666-33333333-1111-3333-4444444444444444-66666666--|
G|---------------------------------------------------------------------------|
D|---------------------------------------------------------------------------|
A|---------------------------------------------------------------------------|
E|---------------------------------------------------------------------------|

Pre Chorus: 4X ( That is the most I could hear )
e|---------------------------------------------------------------------------|
B|-11-(0)-11-(0)-11-(0)-11-(0)-9-(0)-9-(0)-9-(0)-9---------------------------|
G|---------------------------------------------------------------------------|
D|---------------------------------------------------------------------------|
A|---------------------------------------------------------------------------|
E|---------------------------------------------------------------------------|

Chorus:
e|---------------------------------------------------------------------------|
B|---------------------------------------------------------------------------|
G|-1515151515151515-13131313-12121212-1010101010101010-77777777-5555-7777----|
D|--x-x-x-x-x-x-x-x-x-x-x-x--x-x-x-x--x-x-x-x-x-x-x-x--xxxxxxxx-xxxx-xxxx----|
A|-1313131313131313-11111111-10101010-8-8-8-8-8-8-8-8--55555555-3333-5555----|
E|---------------------------------------------------------------------------|

e|---------------------------------------------------------------------------|
B|---------------------------------------------------------------------------|
G|-8888888888888888-1010101010101010-----------------------------------------|
D|-xxxxxxxxxxxxxxxx-x-x-x-x-x-x-x-x------------------------------------------|
A|-6666666666666666-8-8-8-8-8-8-8-8------------------------------------------|
E|---------------------------------------------------------------------------|

Verse:
Pre Chorus:
Chorus:
Bridge: (Is the same as Rhythm Guitar or follow the piano)Play till next chorus.

e|---------------------------------------------------------------------------|
B|---------------------------------------------------------------------------|
G|-88---88-------------------------------------------------------------------|
D|-66-6-66-8-----------------------------------------------------------------|
A|-66-6-66-8-----------------------------------------------------------------|
E|----6----8-----------------------------------------------------------------|
            
Submit corrections


        Kids In Love lessons Hard to play? Try these video lessons and learn fast Kids In Love lessons
        
↑ Back to top | Tablatures and chords for acoustic guitar and electric guitar, ukulele, drums are parodies/interpretations of the original songs. You may use it for private study, scholarship, research or language learning purposes only