» » »

Mayday Parade - Bruised And Scarred Tabs

Artists:  A B C D E F G H I J K L M N O P Q R S T U V W X Y Z # 

Bruised And Scarred Tabs

(ver. 2) Click to play this song!
Mayday Parade
 Rating:
4.4/5 (7 votes)

 Bruised And Scarred lessons Tabs too difficult? Try these video lessons and learn fast
 
                
Tuning: Dropped D
This version of the song is a half note lower than the Anywhere But Here version.



Intro: just figure out the strumming..
|------------------------------------|
|------------------------------------|
|-66666666-101010101010-88-666666-88-|
|-66666666-8-8-8-8-8-8--66-444444-66-|
|-44444433-8-8-8-8-8-8--66-444444-66-|
|----------8-8-8-8-8-8--66-444444-66-|

Violin plays this part, but it sound fun to play xD:
|-9-8-9~-------------------9-8-9~-------------------9-8-9~------9-8-9s11~-|
|--------9s6~-7-6---6-------------9s6~-7-6---6------------9~-9~-----------|
|-----------------8---8-6~-----------------8---8-6~-----------------------|
|-------------------------------------------------------------------------|
|-------------------------------------------------------------------------|
|-------------------------------------------------------------------------|

Verse:
Guitar 1:
|-----------------------------------------|
|-----------------------------------------|
|-66666666--88888888--66666666--88888888--|
|-66666666--66666666--44444444--66666666--|
|-44444444--66666666--44444444--66666666--|
|-----------66666666--44444444--66666666--|

Guitar 2:just figure out how many times its played..
|--9-11-9-9--9-11-9-9--9-11-9-9--|  |--9--11-9-11-9-11-9-9-|
|-9-9----9--9-9----9--9-9----9---|  |-9-9-----9----9----9--|
|--------------------------------|  |----------------------|
|--------------------------------|  |----------------------|
|--------------------------------|  |----------------------|
|--------------------------------|  |----------------------|
                                    This part above is played
                               at the end of each line of verse.

Guitar 2:plays this at the end of verse:
|-16-14----16-14-13----14-13-11----13-11-9--|
|-------14----------14----------14----------|
|-------------------------------------------|
|-------------------------------------------|
|-------------------------------------------|
|-------------------------------------------|

Pre-Chorus:
Guitar 1:
|------------------------------|
|------------------------------|
|--6~--8~---66666666---88888---|
|--4~--6~---44444444---66666---|
|--4~--6~---44444444---66666---|
|--4~--6~---44444444---66666---|

Guitar 2:
|-------------------------------------------------------------|
|-------------------------------------------------------------|
|--1010-11-10--10---1010-11-10--10---1010-11-10--10--10101010-|
|------------11---------------11---------------11-------------|
|-------------------------------------------------------------|
|-------------------------------------------------------------|

Chorus:
Guitar 1:
|------------------------------------|
|------------------------------------|
|-66666666-101010101010-88-666666-88-|
|-66666666-8-8-8-8-8-8--66-444444-66-|
|-44444433-8-8-8-8-8-8--66-444444-66-|
|----------8-8-8-8-8-8--66-444444-66-|

Another guitar plays the same notes with delay effects..

Post-chorus:
|---------------------|
|---------------------|
|--66666666--888888---|
|--66666666--666666---|
|--44444444--666666---|
|------------666666---|

Verse 2:
Guitar 1:
|-----------------------------------------|
|-----------------------------------------|
|-66666666--88888888--66666666--88888888--|
|-66666666--66666666--44444444--66666666--|
|-44444444--66666666--44444444--66666666--|
|-----------66666666--44444444--66666666--|

Guitar 2:
|--9-11-9-9--9-11-9-9--9-11-9-9--|  |--9--11-9-11-9-11-9-9-|
|-9-9----9--9-9----9--9-9----9---|  |-9-9-----9----9----9--|
|--------------------------------|  |----------------------|
|--------------------------------|  |----------------------|
|--------------------------------|  |----------------------|
|--------------------------------|  |----------------------|

Guitar 2:
|-16-14----16-14-13----14-13-11----13-11-9--|
|-------14----------14----------14----------|
|-------------------------------------------|
|-------------------------------------------|
|-------------------------------------------|
|-------------------------------------------|

Pre-Chorus:
Guitar 1:
|------------------------------|
|------------------------------|
|--6~--8~---66666666---88888---|
|--4~--6~---44444444---66666---|
|--4~--6~---44444444---66666---|
|--4~--6~---44444444---66666---|

Guitar 2:
|-------------------------------------------------------------|
|-------------------------------------------------------------|
|--1010-11-10--10---1010-11-10--10---1010-11-10--10--10101010-|
|------------11---------------11---------------11-------------|
|-------------------------------------------------------------|
|-------------------------------------------------------------|

Chorus 2:
|------------------------------------|
|------------------------------------|
|-66666666-101010101010-88-666666-88-|
|-66666666-8-8-8-8-8-8--66-444444-66-|
|-44444433-8-8-8-8-8-8--66-444444-66-|
|----------8-8-8-8-8-8--66-444444-66-|

Then:
|---------------------------------|
|---------------------------------|
|--10---8----6~----6----8----6~---|
|--8-xx-6-xx-4~----4-xx-6-xx-6~---|
|--8-xx-6-xx-4~----4-xx-6-xx-4~---|
|--8-xx-6-xx-4~----4-xx-6-xx------|

I'll update pretty soon for the missing parts..
            
Submit corrections


        Bruised And Scarred lessons Hard to play? Try these video lessons and learn fast Bruised And Scarred lessons
        
↑ Back to top | Tablatures and chords for acoustic guitar and electric guitar, ukulele, drums are parodies/interpretations of the original songs. You may use it for private study, scholarship, research or language learning purposes only