Home » M » Maryzark »

Maryzark - Kai Tabs

Artists:  A B C D E F G H I J K L M N O P Q R S T U V W X Y Z # 

Kai Tabs

(ver. 3) Click to play this song!
Maryzark

Kai
Maryzark
"mganda ung message ng kantang 2..pra bang pinipilit mong mahalin ka ng girl na gus2 mu
ayaw nya sau..,nkaka-relate aq sa kantang 2 kc prang gan2 nangyayari sakin ngaun eh..,


Intro

|----------------------------|
|----------------------------|
|------------------2---------|
|--7-------4-------2---------|2x
|--7--8x---4--8x---1---------|
|--5-------2-------0---------|

      Verse P.M.

|--------------------------------------|
|--------------------------------------|
|------4----6/4/2-----1-----2/1--------|
|--7-7--7-7-------4-4---4-4-----4------|
|--7-7--7-7-------4-4---4-4------------|
|--5-5--5-5-------2-2---2-2------------|

|--------------------------------------|
|--------------------------------------|
|------4-----9/6-6-----1-----2/1-------|
|--7-7---7-7-------4-4---4-4-----4-----|
|--7-7---7-7-------4-4---4-4-----------|
|--5-5---5-5-------2-2---2-2-----------|

                Refrain
|-----------------------------|
|-----------------------------|
|--4-4---6-6---7-7-7-7-7-7-7--|                                       Repeat Verse
Repeat Refrain

Chorus

|---------------------------------|
|---------------------------------|
|----------------------7-7--------|
|--7-7--4-4--7-7--4-4--7-7--------|2x
|--7-7--4-4--7-7--4-4--5-5--------|
|--5-5--2-2--5-5--2-2-------------|
            
Submit corrections

↑ Back to top | Tablatures and chords for acoustic guitar and electric guitar, ukulele, drums are parodies/interpretations of the original songs. You may use it for private study, scholarship, research or language learning purposes only