Home » M » Maryzark »

Maryzark - Kai Tabs

Artists:  A B C D E F G H I J K L M N O P Q R S T U V W X Y Z # 

Kai Tabs

(ver. 2) Click to play this song!
Maryzark


	"weehoo! nyahahaha.. wula lang akong magwa weh..
	 di pa ako cgurdo sa mga lead parts xe maciadong
	 malapot kapaen sa cd player nmen weh.. naglagay
	 n den ako ng kordz para dun sa mga indi p mrunong
	 bumasa ng tabs.. yayown.. muah! T_T"

Intro

|----------------------------------------------|
|----------------------------------------------|
|----------------------------------------------|
|--6-6-6-6-6-6-6-6----8--3-3-3-3-3----5-5------|
|--6-6-6-6-6-6-6-6----x--3-3-3-3-3----5-5------|
|--4-4-4-4-4-4-4-4--\-6--1-1-1-1-1----3-3-/-/--|

|-----------------------------------------|
|-----------------------------------------|
|-----------------------------------------|
|--6-6-6-6-6-6-6-6----8--3-3-3-3-3-3-3-3--|
|--6-6-6-6-6-6-6-6----x--3-3-3-3-3-3-3-3--|
|--4-4-4-4-4-4-4-4--\-6--1-1-1-1-1-1-1-1--|


Verse P.M.

|-----------------------------------------------------------|
|-----------------------------------------------------------|
|-------------------5---------------------------------------|
|-------6-\-8----6-8-6-5--------3-\-5------4-h-5-4-4-5------|
|---------------------------6-----------------------------5-|
|--4-4-------4-4-------------1-1------1-1-------------------|

|-----------------------------------------------------------|
|-----------------------------------------------------------|
|------------------8-5-5------------------------------------|
|------6-\-8----6-------8-6-----3-\-5-----4-h-5-4-4-5-------|
|--------------------------------------------------------5--|
|--4-4------4-4-------------1-1-------1-1-------------------|

Repear Verse x2

Refrain
|-----------------------------|
|-----------------------------|
|--3-3---5-5---6-6-6-6-6-6-6--|
|--3-3---5-5---6-6-6-6-6-6-6--| X2
|--1-1---3-3---4-4-4-4-4-4-4--|
|-----------------------------|

Repeat Verse
Repeat Refrain

Chorus

|------------------------------------------------------|
|------------------------------------------------------|
|------------------------------------------------------|
|--6-6--8--6-8-10-8-6-5------3-3--5--3-3--4-h-5-4------|
|--6-6--------------------6--3-3-----3-3------------5--|
|--4-4-----------------------1-1-----1-1---------------|

|------------------------------------------|
|------------------------------------------|
|--8-8-8-8-8-8------6-----8-----12-----13--|
|--8-8-8-8-8-8------x-----x------x------x--|
|--6-6-6-6-6-6------4--\--6--\--10--\--11--|
|------------------------------------------|

Chrous X2

|----------------------------------|
|----------------------------------|
|--6-----8-----12-----13-13-13-13--|
|--x-----x------x-----x--x--x--x---|
|--4--\--6--\--10--\--11-11-11-11--|
|----------------------------------|

|--------------------------------------|
|--------------------------------------|
|--------------------------------------|
|--6-6-6-6-6-6-6-6----3-3-3-3-3-3-3-3--|
|--6-6-6-6-6-6-6-6----3-3-3-3-3-3-3-3--| X2
|--4-4-4-4-4-4-4-4----1-1-1-1-1-1-1-1--|

Lead
|-------------------------|
|--6-7-7-6-7-7-6-7-7-7-7--|
|--6-6-6-6-6-6-6-6-6-6-6--| times marming
|-------------------------| beses
|-------------------------|
|-------------------------|

Repeat Verse

Refrain 2 P.M
|-------------------------------------------|
|-------------------------------------------|
|--------------------------6-6-6-6-6-6-6-6--|
|--3-3-3-3-3---5-5-5-5-5---6-6-6-6-6-6-6-6--|
|--1-1-1-1-1---3-3-3-3-3---4-4-4-4-4-4-4-4--|
|-------------------------------------------|

Repeat Chrous
|-----------------------------------------------|
|-----------------------------------------------|
|-----------------------------------------------|
|--6-------------3--------------6------------3--|
|--6-------------3--------------6------------3--|
|--4-------------1--------------4------------1--|

Last Chorus

|----------------------------------------------------|
|----------------------------------------------------|
|------------------------8-8-8-8-8--6---8---12---13--|
|--6-6-6-6-6--3-3-3-3-3--8-8-8-8-8--x---x---x-----x--| X4
|--6-6-6-6-6--3-3-3-3-3--6-6-6-6-6--4-\-6-\-10-\-11--|
|--4-4-4-4-4--1-1-1-1-1------------------------------|

Lead Part enters in round 3

|-----------------------------------|
|-----------------------------------|
|--6-----8-----12-----13-13-13-13---|
|--x-----x------x------x--x--x--x---| X2
|--4--\--6--\--10--\--11-11-11-11---|
|-----------------------------------|

|--------|
|--------|
|--------|
|---4----|
|---4----|
|---6----|

Chords

Intro
 G# - F - G Break
 G# - F

Verse
 G# - F x4

Refrain
 Bb - C - C# x2

Chorus
 G# - F - Eb - C# x2

Bridge
 G# - F x2

Lyrics

unti unting gumagalaw
kanyang matang nakatanaw
sayong ngiting walang saya
nagtatanong, nagatataka
bakit ba ganito
tinapos sa gulo
wala na rin bang halaga
ang yakap at halik niya
ang dating hinahanap pa
ngayo'y tinataguan na
bakit ba ganto
tinapos sa gulo

mahalin mo na lang kahit kunwari
dalangin niyang nakatingin sa langit
naubos na ang sanadali ng buhay niyang
kasing gulo ng isang
pelikulang wala namang istorya
natapos ng ikaw na lang ang bida
di mo man lang nasabi na
mahal na mahal mo siya
mahal na mahal mo siya

ang hawak mong kasing lamig
ng huling halik sa kanyang bibig
bakit b umiwas pa
sa huling tanong na meron siya
unti unting nalilito
naiinis sa kwento mo
daig niyo pa ang tv ko

naubos na ang luha niya
pikit na ang kanyang mata
kaninang nakatitig pa
sa larawan mo na yakap niya
            
Submit corrections

↑ Back to top | Tablatures and chords for acoustic guitar and electric guitar, ukulele, drums are parodies/interpretations of the original songs. You may use it for private study, scholarship, research or language learning purposes only