Home » M » Maryzark »

Maryzark - Kai Tabs

Artists:  A B C D E F G H I J K L M N O P Q R S T U V W X Y Z # 

Kai Tabs

(ver. 1) Click to play this song!
Maryzark
Album:Good Mournings

For your questions or suggestions,just post in friendster comment,PM or mail me.

Gtr.Legends:
. - palm muting
x - dead string
~ - let it ring
p - pull-off
h - hammer-on
/ - slide
b - bend

Gtr.Tuning:Drop D(Alternative)

Intro prt.1:
e|------------------------------------|
B|------------------------------------|
G|-88888--55555--------88888--55555---|
D|-66666--33333--1-1---66666--33333---|
A|-66666--33333--1-1---66666--33333---|
D|-66666--33333--1-1---66666--33333---|
                 . .

Intro prt.2 then Verse 1:Unti-unting gumagalaw...
e|-----------------------------------------------------------|
B|-----------------------------------------------------------|
G|-----------------------------------------------------------|
D|-66--6h8--66--8/10-8-------------33--3h5--33--3h5-6p5-3p1--|
A|-66-------66----------11-10------33-------33---------------|
D|-66-------66-----------------10--33-------33---------------|
   ..       ..                     ..       ..

-------------------------------------------------|
-------------------------------------------------|
----------------8--------------------------------| 2x
-66--6h8--66--8---10--33--3h5--33--3h5-6p5-3p1---| Then
-66-------66----------33-------33----------------|
-66-------66----------33-------33----------------|
 ..       ..          ..

Bakit ba ganito...
e|------------------------------|
B|------------------------------|
G|------------------------------| 2x
D|-8--10-111111--8--10-111111---|
A|-8--10-111111--8--10-111111---| 8-10-11
D|-8--10-111111--8--10-111111---|

Repeat Verse

Chorus:Mahalin mo na lang...
e|------------------------------------------------------|
B|------------------------------------------------------|
G|-----------------------------------------6-8-12--13---|
D|-666-8b--666-8b--333-5b--333-5b--111111--x-x--x--xx---|
A|-666-----666-----333-----333-----111111--4-6-10--11---|
D|-666-----666-----333-----333-----111111---------------|

e|----------------------------------------------------------------------|
B|----------------------------------------------------------------------|
G|-----------------------------------------6-8-12--13---6--8-12-12/13---| 6-3-1
D|-666-8b--666-8b--333-5b--333-5b--111111--x-x--x--xx---x--x--x--x-xx---|
A|-666-----666-----333-----333-----111111--4-6-10--11---4--6-10-10/11---|
D|-666-----666-----333-----333-----111111-------------------------------|

Bridge:
e|-1515------1515----------1515-1616-1515-1616-1515-1616-1515------1515-1615---|
B|------1616------16161616------------------------------------1616-------------|
G|-----------------------------------------------------------------------------| Listen 
the
D|-----------------------------------------------------------------------------| song 
timing
A|-----------------------------------------------------------------------------|
D|-----------------------------------------------------------------------------|

Verse 2:Ang hawak mo'y...
Repeat Verse

Unti-unting nalilito...
e|---------------------------|
B|---------------------------|
G|---------------------------|
D|-8888-10101010-111111111---|
A|-8888-10101010-111111111---|
D|-8888-10101010-111111111---|
   .... ........

Repeat Chorus:

Solo for Drums and Keyboards

Repeat Chorus and Bridge:

Last Chord:
e|------------|
B|------------|
G|------------|
D|-6666--6~---|
A|-4444--6~---|
D|-------6~---|

End...


Kai Lyrics:

Verse 1
unti-unting gumagalaw
kanyang matang nakatanaw
sayong ngiting walang saya
nagtatanong,nagtataka
bakit ba ganito?
tinapos sa gulo...
wala na rin bang halaga
ang yakap at halik niyang
dati'y hinahanap pa
ngayo'y tinataguan na
bakit ba ganito
tinapos sa gulo...

chorus:
mahalin mo na lang kahit kunwari
dalangin niyang nakatingin sa langit
naubos na ang sandali ng buhay niyang kasing-gulo
ng isang pelikulang wala namang istorya
natapos ng ikaw na lang ang bida
di man lang nasabi na mahal na mahal mo siya...

Verse 2
ang hawak mo'y kasing lamig
ng huling halik sa kanyang bibig
bakit ka umiwas sa
huling tanong na meron sya

Unti-unting nalilito
Naiinis sa kwento mo
Daig nyo pa ang tv ko
Repeat chorus


Naubos na ang luha nya
Pikit na ang kanyang mata
Kanina'y nakatitig pa
Sa larawan mo na yakap nya
repeat chorus 2x
            
Submit corrections

↑ Back to top | Tablatures and chords for acoustic guitar and electric guitar, ukulele, drums are parodies/interpretations of the original songs. You may use it for private study, scholarship, research or language learning purposes only