» » »

Maroon 5 - Maps Tabs

Artists:  A B C D E F G H I J K L M N O P Q R S T U V W X Y Z # 

Maps Tabs

(ver. 2) Click to play this song!
Maroon 5
 Rating:
4/5 (4 votes)

 Maps  lessons Tabs too difficult? Try these video lessons and learn fast
 
                Tuning: Standard

You can either play it on the regular or on the pentatonic scale

  intro and verses
  Regular
  e|---------------------------------------------------------------------------|
  B|-----------------------9h10p9----------------------------------------------|
  G|-------6-----8------9--------9------6-----8------9-------------------------|
  D|---------------------------------------------------------------------------|  2x
  A|-----7-----9-----11---------------7-----9-----11---------------------------|
  E|---5-----7-----9----------------5-----7-----9------9\----------------------|
 
                                       or
  intro and verses
  Pentatonic
  e|----------------------4h5p4------------------------------------------------|
  B|-------------4-----5-------5-----------4-----5-----------------------------|
  G|-------6---4-----6---------------6---4----6--------------------------------|
  D|---------------------------------------------------------------------------| 2x
  A|-----7---------4---------------7---------4-----4\--------------------------|
  E|---5-----7-------------------5-----7---------------------------------------|   

 
  pre-chorus
  e|---------------------------------------------------------------------------|
  B|----------(7)--------------------------------------------------------------|
  G|---6-6-6-6-6-6-6-6-6-6-6-6-6-8-6---8-8-8-8-8-8-8-8---9--9--9--9--9--9--9---|
  D|---7-7-7-7-7-7-7-7-7-7-7-7-7-7-7---9-9-9-9-9-9-9-9---11-11-11-11-11-11-11--|
  A|---0-------------------------------x---------------------------------------|
  E|-----------------------------------7-----------------9---------------------|
  
  choruses
        A     B           C#m
  e|--5-5-5--7-7--9--9---9--9---9---9--|
  B|--5-5-5--7-7--9--9---9--9---9---9--|
  G|--6-6-6--8-8--9--9---9--9---9---9--| ??? ?? ?? ?? ? ?  8x   you can also play
  D|--7-7-7--9-9--11-11--11-11--11--11-|                        the riff from the
  A|--7-7-7--9-9--11-11--11-11--11--11-|                        intro
  E|--5-5-5--7-7--9--9---9--9---9---9--|

  2nd pre-chorus
  e|---------------------------------------------------------------------------|
  B|----------(7)----------------------------------------9--9--9--9--9--9--\9--|
  G|---6-6-6-6-6-6-6-6-6-6-6-6-6-8-6---8-8-8-8-8-8-8-8---9--9--9--9--9--9--\9--|
  D|---7-7-7-7-7-7-7-7-7-7-7-7-7-7-7---9-9-9-9-9-9-9-9---11-11-11-11-11-11-\11-|
  A|---0-------------------------------x-----------------x------------------x--|
  E|-----------------------------------7-----------------9-----------------\9--|            
Submit corrections


        Maps  lessons Hard to play? Try these video lessons and learn fast Maps  lessons
        
↑ Back to top | Tablatures and chords for acoustic guitar and electric guitar, ukulele, drums are parodies/interpretations of the original songs. You may use it for private study, scholarship, research or language learning purposes only