» » »

Maroon 5 - Maps Tabs

Artists:  A B C D E F G H I J K L M N O P Q R S T U V W X Y Z # 

Maps Tabs

(ver. 3) Click to play this song!
Maroon 5
 Rating:
4.3/5 (25 votes)
    Maps  lessons Tabs too difficult? Try these video lessons and learn fast
                [Intro/verse]
e|----------------------------------|------2p3-------------------------|-----------------------------|
B|-------0----------2------------3--|------------2---------0-----------|--2-----------3--------------|
G|----------------------------------|----------------------------------|-----------------------------|  4x
D|-----0---------2------------4-----|------------------0------------2--|-----------4-----------------|
A|-----------2-----------2----------|--------------------------2-------|------2----------------------|
E|--3-------------------------------|---------------3------------------|-----------------------7\----|

[Pre-Chorus]
      I was there for you in your darkest times, I was there for you in your 
darkest night
e|---------------------------------------------|------------------------------------------------|
B|---------------------------------------------|------------------------------------------------|
G|---------------------------------------------|------------------------------------------------|
D|---------------------------------------------|------------------------4--4--4--4--4--4--4--4--|
A|--2--2--2--2--2--2--2---2--2--2--2--2--2--2--|--4--4--4--4--4--4--4---1--1--1--1--1--1--1--1--|
E|--0--0--0--0--0--0--0---0--0--0--0--0--0--0--|--2--2--2--2--2--2--2---------------------------|


[Chorus]
     But I wonder; where were you?
e|---------------------------------|-----------------------------|   
B|---------------------------------|-----------------------------|
G|---------------------------------|-----------------------------|   4x
D|--5--5--5----7--7--7----9--9--9--|--9--9--9--9--9--9--9--------|
A|--3--3--3----5--5--5----7--7--7--|--7--7--7--7--7--7--7--------|
E|---------------------------------|-----------------------------|

      (This always plays during the chorus)
e|----------------------------------|------2p3-------------------------|-----------------------------|
B|-------0----------2------------3--|------------2---------0-----------|--2-----------3--------------|
G|----------------------------------|----------------------------------|-----------------------------| 
D|-----0---------2------------4-----|------------------0------------2--|-----------4-----------------|
A|-----------2-----------2----------|--------------------------2-------|------2----------------------|
E|--3-------------------------------|---------------3------------------|-----------------------7\----|

e|----------------------------------|------2p3-------------------------|-----------------------------|
B|-------0----------2------------3--|------------2---------0-----------|--2--------------------------|
G|----------------------------------|----------------------------------|-----------------------------| 
D|-----0---------2------------4-----|------------------0------------2--|-----------4-----------------|
A|-----------2-----------2----------|--------------------------2-------|------2----------------------|
E|--3-------------------------------|---------------3------------------|-----------------------------|
      
Play this whole section twice before moving on to 

[Verse 2][1:21-2nd verse]
e|----------------------------------|------2p3-------------------------|-----------------------------|
B|-------0----------2------------3--|------------2---------0-----------|--2-----------3--------------|
G|----------------------------------|----------------------------------|-----------------------------| 2x
D|-----0---------2------------4-----|------------------0------------2--|-----------4-----------------|
A|-----------2-----------2----------|--------------------------2-------|------2----------------------|
E|--3-------------------------------|---------------3------------------|-----------------------7\----|

  No I just can't get over ya-ooo
e|----------------------------------|
B|-------0----------2------------3--|
G|----------------------------------|
D|-----0---------2------------4-----|
A|-----------2-----------2----------|
E|--3-------------------------------|

[Pre-Chorus]
      I was there for you in your darkest times, I was there for you in your 
darkest night
e|---------------------------------------------|------------------------------------------------|
B|---------------------------------------------|------------------------------------------------|
G|---------------------------------------------|------------------------------------------------|
D|---------------------------------------------|------------------------4--4--4--4--4--4--4--4--|
A|--2--2--2--2--2--2--2---2--2--2--2--2--2--2--|--4--4--4--4--4--4--4---1--1--1--1--1--1--1--1--|
E|--0--0--0--0--0--0--0---0--0--0--0--0--0--0--|--2--2--2--2--2--2--2---------------------------|

[Chorus]
     But I wonder; where were you?
e|---------------------------------|-----------------------------|   
B|---------------------------------|-----------------------------|
G|---------------------------------|-----------------------------|   4x
D|--5--5--5----7--7--7----9--9--9--|--9--9--9--9--9--9--9--------|
A|--3--3--3----5--5--5----7--7--7--|--7--7--7--7--7--7--7--------|
E|---------------------------------|-----------------------------|

      (This always plays during the chorus)
e|----------------------------------|------2p3-------------------------|-----------------------------|
B|-------0----------2------------3--|------------2---------0-----------|--2-----------3--------------|
G|----------------------------------|----------------------------------|-----------------------------| 
D|-----0---------2------------4-----|------------------0------------2--|-----------4-----------------|
A|-----------2-----------2----------|--------------------------2-------|------2----------------------|
E|--3-------------------------------|---------------3------------------|-----------------------7\----|

e|----------------------------------|------2p3-------------------------|-----------------------------|
B|-------0----------2------------3--|------------2---------0-----------|--2--------------------------|
G|----------------------------------|----------------------------------|-----------------------------| 
D|-----0---------2------------4-----|------------------0------------2--|-----------4-----------------|
A|-----------2-----------2----------|--------------------------2-------|------2----------------------|
E|--3-------------------------------|---------------3------------------|-----------------------------|

[Breakdown]
  Oh, I was there for you oh in your darkest time, I was there for you oh in your 
darkest night 
e|--------------------|
B|--------------------|
G|-------2---4---4----|  4x
D|--4-----------------|
A|--------------------|
E|--------------------|

[Chorus/Outro]


But I wonder; where were you?
e|---------------------------------|-----------------------------|   
B|---------------------------------|-----------------------------|
G|---------------------------------|-----------------------------|   4x
D|--5--5--5----7--7--7----9--9--9--|--9--9--9--9--9--9--9--------|
A|--3--3--3----5--5--5----7--7--7--|--7--7--7--7--7--7--7--------|
E|---------------------------------|-----------------------------|

e|----------------------------------|------2p3-------------------------|-----------------------------|
B|-------0----------2------------3--|------------2---------0-----------|--2-----------3--------------|
G|----------------------------------|----------------------------------|-----------------------------| 
D|-----0---------2------------4-----|------------------0------------2--|-----------4-----------------|
A|-----------2-----------2----------|--------------------------2-------|------2----------------------|
E|--3-------------------------------|---------------3------------------|-----------------------7\----|

e|----------------------------------|------2p3-------------------------|-----------------------------|
B|-------0----------2------------3--|------------2---------0-----------|--2--------------------------|
G|----------------------------------|----------------------------------|-----------------------------| 
D|-----0---------2------------4-----|------------------0------------2--|-----------4-----------------|
A|-----------2-----------2----------|--------------------------2-------|------2----------------------|
E|--3-------------------------------|---------------3------------------|-----------------------------|

[Refrain]
So I'm following the map that leads to you
e|---------------------------------|-----------------------------|   
B|---------------------------------|-----------------------------|
G|---------------------------------|-----------------------------|   4x
D|--5--5--5----7--7--7----9--9--9--|--9--9--9--9--9--9--9--------|
A|--3--3--3----5--5--5----7--7--7--|--7--7--7--7--7--7--7--------|
E|---------------------------------|-----------------------------|

e|----------------------------------|------2p3-------------------------|-----------------------------|
B|-------0----------2------------3--|------------2---------0-----------|--2-----------3--------------|
G|----------------------------------|----------------------------------|-----------------------------| 
D|-----0---------2------------4-----|------------------0------------2--|-----------4-----------------|
A|-----------2-----------2----------|--------------------------2-------|------2----------------------|
E|--3-------------------------------|---------------3------------------|-----------------------7\----|

e|----------------------------------|------2p3-------------------------|-----------------------------|
B|-------0----------2------------3--|------------2---------0-----------|--2--------------------------|
G|----------------------------------|----------------------------------|-----------------------------| 
D|-----0---------2------------4-----|------------------0------------2--|-----------4-----------------|
A|-----------2-----------2----------|--------------------------2-------|------2----------------------|
E|--3-------------------------------|---------------3------------------|-----------------------------|
  
                         
Submit corrections

↑ Back to top | Tablatures and chords for acoustic guitar and electric guitar, ukulele, drums are parodies/interpretations of the original songs. You may use it for private study, scholarship, research or language learning purposes only