» » »

Maroon 5 - Maps Tabs

Artists:  A B C D E F G H I J K L M N O P Q R S T U V W X Y Z # 

Maps Tabs

(ver. 1) Click to play this song!
Maroon 5
 Rating:
4/5 (4 votes)

 Maps  lessons Tabs too difficult? Try these video lessons and learn fast
 
                Intro, verse and chorus (Figure 1):
     A        B        C#m                       A        B        C#m                  
E||-----------------------------------4h5p4---|-------------------------------------------||
B||--------2--------4--------5--------------5-|--------2--------4--------5----------------||
G||-------------------------------------------|-------------------------------------------||
D||-----2--------4--------6-------------------|-----2--------4--------6-------------------||
A||--0--------2--------4----------------------|--0--------2--------4-----------------4\---||
E||-------------------------------------------|-------------------------------------------||


The bridge (Figure 2):
    F#m (x16)                       G# (x16)
||-------------------------------------------------------------------||
||-------------------------------------------------------------------||
||--2-2-2-2-2-2-2-2-2-2-2-2-2-2-2-2-5-5-5-5-5-5-5-5-5-5-5-5-5-5-5-5--||
||--4-4-4-4-4-4-4-4-4-4-4-4-4-4-4-4-6-6-6-6-6-6-6-6-6-6-6-6-6-6-6-6--||
||--4-4-4-4-4-4-4-4-4-4-4-4-4-4-4-4-6-6-6-6-6-6-6-6-6-6-6-6-6-6-6-6--||
||--2-2-2-2-2-2-2-2-2-2-2-2-2-2-2-2-4-4-4-4-4-4-4-4-4-4-4-4-4-4-4-4--||


Alternative chorus (Figure 3*):
    A          B          C#m
||--0----0-----2----2-----4----4-----4----4----||
||--2----2-----4----4-----5----5-----5----5----||
||--2----2-----4----4-----6----6-----6----6----||
||--2----2-----4----4-----6----6-----6----6----||
||--0----0-----2----2-----4----4-----4----4----||
||---------------------------------------------||

*You can choose between figure 1 and 3 in the chorus. Figure 1 is what they use in the song, but i find
figure 3 better when i play alone, because it adds more intensity than figure 1.

So here you go:

(Figure 1)
I miss the taste of a sweeter life
I miss the conversation
I?m searching for a song tonight
I?m changing all of the stations

(Figure 1)
I like to think that we had it all
We drew a map to a better place
But on that road I took a fall
Oh baby why did you run away?

(Figure 2)
I was there for you
In your darkest times
I was there for you
In your darkest nights

(Figure 1 or 3)
But I wonder where were you?
When I was at my worst
Down on my knees
And you said you had my back
So I wonder where were you?
When all the roads you took came back to me

(Fig. 1 or 3)
So I?m following the map that leads to you
The map that leads to you
Ain't nothing I can do
The map that leads to you
Following, following, following to you
The map that leads to you
Ain't nothing I can do
The map that leads to you
Following, following, following

(Fig. 1)
I hear your voice in my sleep at night
Hard to resist temptation
'Cause something strange has come over me
And now I can?t get over you
No, I just can?t get over you

(Fig. 2)
I was there for you
In your darkest times
I was there for you
In your darkest nights

(Fig. 1 or 3)
But I wonder where were you?
When I was at my worst
Down on my knees
And you said you had my back
So I wonder where were you?
When all the roads you took came back to me

(Fig. 1 or 3)
So I?m following the map that leads to you
The map that leads to you
Ain't nothing I can do
The map that leads to you
Following, following, following to you
The map that leads to you
Ain't nothing I can do
The map that leads to you

(Break)
Oh oh oh
Oh oh oh
Yeah yeah yeah
Oh oh oh

Oh, I was there for you
Oh, in your darkest time
Oh, I was there for you
Oh, in your darkest nights

Oh, I was there for you
Oh, in your darkest time
Oh, I was there for you
Oh, in your darkest nights

(Fig. 1 or 3)
But I wonder where were you?
When I was at my worst
Down on my knees
And you said you had my back
So I wonder where were you?
When all the roads you took came back to me

(Fig. 1 or 3)
So I?m following the map that leads to you
The map that leads to you
Ain't nothing I can do
The map that leads to you
Following, following, following to you
The map that leads to you
Ain't nothing I can do
The map that leads to you
Following, following, following
            
Submit corrections


        Maps  lessons Hard to play? Try these video lessons and learn fast Maps  lessons
        
↑ Back to top | Tablatures and chords for acoustic guitar and electric guitar, ukulele, drums are parodies/interpretations of the original songs. You may use it for private study, scholarship, research or language learning purposes only