Home » M » Mac Demarco »

Mac Demarco - Without Me Tabs

Artists:  A B C D E F G H I J K L M N O P Q R S T U V W X Y Z # 

Without Me Tabs

(ver. 1) Click to play this song!
Mac Demarco
Tuning: Standard

INTRO: x4

e|---------------------------------------------------------------------------|
B|-9----9--------------------------------------------------------------------|
G|--10~------10--------------------------------------------------------------|
D|-------10~----8~-10-6~-----------------------------------------------------|
A|---------------------------------------------------------------------------|
E|---------------------------------------------------------------------------|

CHORUS LEAD: x3              then: x1

e|-------------------------------------------------------------------------------|
B|-9----9------------------------------9---9-------------------------------------|
G|--10~------10-------------------------10~-----8-9-11-8-------------------------|
D|-------10~----8~-10-6~--------------------10~----------11~---------------------|
A|-------------------------------------------------------------------------------|
E|-------------------------------------------------------------------------------|            
Submit corrections

↑ Back to top | Tablatures and chords for acoustic guitar and electric guitar, ukulele, drums are parodies/interpretations of the original songs. You may use it for private study, scholarship, research or language learning purposes only