Home » L » Led Zeppelin »

Led Zeppelin - Dazed And Confused Bass

Artists:  A B C D E F G H I J K L M N O P Q R S T U V W X Y Z # 

Dazed And Confused Bass

(ver. 6) Click to play this song!
Led Zeppelin
[Main Riff]
G|----------------|-----------------|
D|----------------|-----------------|
A|---10--9--8--7--|-----------------|
E|-0--------------|-0--10--9--8--7--|

[Bridge]
G|---------------------|
D|------------7-9------|
A|--------7-9-----7-9--|
E|-7-7-7---------------|

[6/4 Part]
G|---------------|---------------|---------------|---------------|
D|---------------|-5-5-5-5-------|-7-7-7-7-------|-5-5-5-5-------|
A|-7-7-7-7-5-----|---------7-----|---------7-----|---------7-----|
E|---------------|---------------|---------------|---------------|

G|---------------|---------------|---------------|---------------|
D|---------------|-5-5-5-5-------|-7-7-7-7-------|-9-9-9-9-------|
A|-7-7-7-7-5-----|---------7-----|---------7-----|---------7-----|
E|---------------|---------------|---------------|---------------|

G|---------------|---------------|---------------|---------------|
D|-7-7-7-7-------|-5-5-5-5-------|---------------|-5-5-5-5-------|
A|---------7-----|---------7-----|-5-5-5-5-5h7---| ---------7----|
E|---------------|---------------|---------------|---------------|

G|---------------|---------------|---------------|---------------|
D|-9-9-9-9-------|-7-7-7-7-------|---------------|-5-5-5-5-------|
A|---------7-----|---------7-----|-5-5-5-5-5h7---|--------5h7----|
E|---------------|---------------|---------------|---------------|

G|---------------|---------------|---------------|---------------|
D|-7-7-7-7-------|-9-9-9-9-------|-7-7-7-7-------|-5-5-5-5-------|
A|--------5h7----|---------7-----|---------7-----|---------7-----|
E|---------------|---------------|---------------|---------------|

G|---------------|---------------|---------------|---------------|
D|-5-5-5-5-------|-7-7-7-7-------|-9-9-9-9-------|-7-7-7-7-------|
A|---------7-----|---------7-----|---------7-----|---------7-----|
E|---------------|---------------|---------------|---------------|

G|---------------|-7-------------|-9-------------|-7-------------|
D|--9-9-9-9------|---7---7-------|---7---7-------|---7---7-------|
A|---------7-----|-----7---7-----|-----7---7-----|-----7---7-----|
E|---------------|---------------|---------------|---------------|

G|------9---9----|----7---7------|------9---9----|-7-------------|
D|----7---7------|------7---7----|----7---7------|---7---7-------|
A|--7------------|--7------------|--7------------|-----7---7-----|
E|---------------|---------------|---------------|---------------|

G|---------------|---------------|---------------|----------------------------|
D|---------------|---------------|---------------|----------------------------|
A|-8-8-8-8-8-----|-8-8-8-8-8-----|-8-8-8-8-8-----|-8--8-8-8----8-8-8-8-8-8-7--|
E|---------------|---------------|---------------|----------------------------|

[Guitar Solo]
E|----------------------------|
D|-------5h7p5---------5h7p5--|
A|----5h7------7----5h7-----7-|
E|-5h7-----------5h7----------|

[End of Solo, with Guitar]
(Each note strummed a bit)
G|-----------------|---------------|
D|-----------------|---------------|
A|--7------5-------|--7-------10---|
E|-----------5-5---|---------------|

Then: 
G|---------------------|
D|------------7-9------|
A|--------7-9-----7-9--|
E|-7-7-7---------------|

Back to:
G|----------------|-----------------|
D|----------------|-----------------|
A|---10--9--8--7--|-----------------|
E|-0--------------|-0--10--9--8--7--|

Again:
G|---------------------|
D|------------7-9------|
A|--------7-9-----7-9--|
E|-7-7-7---------------|

[Back to 6/4]
(He improvises a bit, but the line is basically this) 
G|---------------|---------------|---------------|-7-7-7-7-------|-9-9-9-9-7-----|
D|---------------|-7-7-7-7-5-----|-9-9-9-9-7-----|---------9-----|---------------|
A|-7-7-7-7-5-----|---------------|---------------|---------------|---------------|
E|---------------|---------------|---------------|---------------|---------------|

G|----------9p7--|--------------9p7--|---------9p7--|-----------9p7--|---------------|
D|---------------|-----------------9-|--------------|--------------9-|---------------|
A|-5--7----------|-7-7-7-7-5---------|--5---7-------|----5-7---------|-----5-7-5-5-5-|
E|---------------|-------------------|--------------|-5-5------------|-5-5-----------|

G|------------|------------|------------|------------|------------|------------|---------|---|
D|------------|------------|------------|------------|------------|------------|---------|---|
A|-5-5-5-5-5--|-5-5-5-5-5--|-5-5-5-5-5--|-5-5-5-5-5--|-5-5-5-5-5--|-5-5-5-5-5--|-5-5-5-5-|-7-|
E|------------|------------|------------|------------|------------|------------|---------|---|
            
Submit corrections

↑ Back to top | Tablatures and chords for acoustic guitar and electric guitar, ukulele, drums are parodies/interpretations of the original songs. You may use it for private study, scholarship, research or language learning purposes only