» » »

Led Zeppelin - Dazed And Confused Tabs

Artists:  A B C D E F G H I J K L M N O P Q R S T U V W X Y Z # 

Dazed And Confused Tabs

(ver. 1) Click to play this song!
Led Zeppelin
 Rating:
4.3/5 (19 votes)

 Dazed And Confused lessons Tabs too difficult? Try these video lessons and learn fast
 
                [Intro]

Use heavy WAH

e|---12HA------------5HA--------------------------------|
B|-12HA-------------5HA---------------------------------|
G|-----------------------------12HA-12B14-12R-12B14-12R-|
D|------------------------------------------------------|
A|------------------------------------------------------|
E|------------------------------------------------------|

e|---12HA-----------------5HA-------------12HA-|
B|-12HA------------------5HA-5HA--------12HA---|
G|----------------------------5HA---12HA-------|
D|---------------------------------------------|
A|---------------------------------------------|
E|---------------------------------------------|

e|---12HA-----------------5HA----------------12HA---|
B|-12HA------------------5HA-5HA------12HA-12HA-----|
G|----------------------------5HA---12HA------------|
D|--------------------------------------------------|
A|--------------------------------------------------|
E|--------------------------------------------------|


[Verse]

 Guitar 1
e|-------------------------|
B|-------------------------|
G|-------------------------|
D|-------------------------|
A|--9B-9R-7B-7R-4B-4R-2B-2R|
E|-0-----------0-----------| x 3

Guitar 2 in unison with guitar

e|--14B-14R-12B-12R------------------|
B|------------------14B-14R-12B-12R--|
G|-----------------------------------|
D|-----------------------------------|
A|-----------------------------------|
E|-0---------------0-----------------| x 3


[Chorus]

e|------------------|
B|------------------|
G|-----------2-4----|
D|-4-4-4-2-4----2-4-|
A|-2-2-2------------|
E|------------------| X3


[Verse]

Guitar 1

e|-------------------------|
B|-------------------------|
G|-------------------------|
D|-------------------------|
A|--9B-9R-7B-7R-4B-4R-2B-2R|
E|-0-----------0-----------| x 3

Guitar 2

e|--14B-14R-12B-12R------------------|
B|------------------14B-14R-12B-12R--|
G|-----------------------------------|
D|-----------------------------------|
A|-----------------------------------|
E|-0---------------0-----------------| x 3


[Chorus]

e|------------------|
B|------------------|
G|-----------2-4----|
D|-4-4-4-2-4----2-4-|
A|-2-2-2------------|
E|------------------| X3


[Chorus]

e|-------------------------|
B|-------------------------|
G|-------------------------|
D|-------------------------|
A|-9-9-9-9-7-----5-5-5-5-2-|
E|-7-7-7-7-5-----3-3-3-3-0-|


[Interlude]

Use volume swells

e|-----------------------------------------------------|
B|-----------------------------------------------------|
G|-----------------------------------------------------|
D|-----------------------------------------------------|
A|-----------------------------------------------------|
E|-5/0------5/0------5/0----5/0----7/10----7/10----7/10|

e|-----------------|
B|-----------------|
G|-----------------|
D|-----------------|
A|-----------------|
E|-12/-14/-12/-10/-|

From this part on Jimmy uses a violin bow and just messes around with the notes you did
Volume swells with until the solo starts.

[PRE-SOLO]

e|-------------------------------------------|
B|-------------------------------------------|
G|-----------12-14-12---------------12-14-12-|
D|------12-14--------14--------12-14---------|
A|-12-14------------------12-14--------------|
E|-------------------------------------------| x 2

e|--------------------------------------------|
B|-15--14--12--10--12--10---8--7--8---7--3--2-|
G|-17B-16B-14B-12B-14B-12B-10B-9B-10B-9B-5B-4B|
D|--------------------------------------------|
A|--------------------------------------------|
E|--------------------------------------------|


[Solo]

I haven't Figured out the solo yet but I'll let you improvise it

[PRE-VERSE]

e|-----------------|
B|-----------------|
G|-----------------|
D|-9--7----9----12-|
A|-7--5-7--7----10-|
E|------5----------| X 2

e|------------------|
B|------------------|
G|-----------2-4----|
D|-4-4-4-2-4----2-4-|
A|-2-2-2------------|
E|------------------| X3


[Verse]

e|-------------------------|
B|-------------------------|
G|-------------------------|
D|-------------------------|
A|--9B-9R-7B-7R-4B-4R-2B-2R|
E|-0-----------0-----------| x 3


[Chorus]

e|------------------|
B|------------------|
G|-----------2-4----|
D|-4-4-4-2-4----2-4-|
A|-2-2-2------------|
E|------------------| X3


[Verse]

e|-------------------------|
B|-------------------------|
G|-------------------------|
D|-------------------------|
A|--9B-9R-7B-7R-4B-4R-2B-2R|
E|-0-----------0-----------|

e|-----------------------------------------------------|
B|-----------------------------------------------------|
G|-----------------------------------------------------|
D|-----------------------------------------------------|
A|--9B-9R-7B-7R-B-7R-B-7R-4B-4R-2B-2R-2B-2R-2B-2R-2B-2R|
E|-0-----------0---------------------------------------| x 3


[Chorus]

e|------------------|
B|------------------|
G|-----------2-4----|
D|-4-4-4-2-4----2-4-|
A|-2-2-2------------|
E|------------------| X3


[Outro]

e|-------------------------|
B|-------------------------|
G|-------------------------|
D|-------------------------|
A|-9-9-9-9-7--7-7-7-7-9----|
E|-7-7-7-7-5--5-5-5-5-7----|

e|-----------------------|
B|-----------------------|
G|-9-9-9-9-7--7-7-7-7-9--|
D|-0-0-0-0-0--0-0-0-0-0--|
A|-7-7-7-7-5--5-5-5-5-7--|
E|-----------------------| X 4

e|----------------------|
B|----------------------|
G|----------------7P6P5-|
D|-0PM-0PM-0PM-0PM------|
A|----------------------|
E|----------------------| X 4

e|----------------------------------|
B|----------------------------------|
G|----------------------------------|
D|-7-7-7-7-7--7-7-7-7-7--7-7-7-7-7--|
A|-5-5-5-5-5--5-5-5-5-5--5-5-5-5-5--|
E|----------------------------------|

e|---------------|
B|---------------|
G|---------------|
D|-7-7-7-7-/9----|
A|-5-5-5-5-/7----|
E|----------0----| Hold note until fade
            
Submit corrections


        Dazed And Confused lessons Hard to play? Try these video lessons and learn fast Dazed And Confused lessons
        
↑ Back to top | Tablatures and chords for acoustic guitar and electric guitar, ukulele, drums are parodies/interpretations of the original songs. You may use it for private study, scholarship, research or language learning purposes only