Home » L » Lamb Of God »

Lamb Of God - Omerta Bass

Artists:  A B C D E F G H I J K L M N O P Q R S T U V W X Y Z # 

Omerta Bass

(ver. 3) Click to play this song!
Lamb Of God
Lamb of God - Omerta

Drop D Tuning

Riff 1A x4
   tt s s s s s s s tt s s s s s s s   tt s s s s s s s s s s s s s s s
|------------------------------------|----------------------------------|
|4-----------------------------------|------------------------------0---|
|4----------5----------------4-------|----------7---------1-----1p0---0-|
|--00-0-0-0---0-0-0-00-0-0-0---0-0-0-|-00-0-0-0---0-0-0-0---0-0---------|

  tt s s s s s s s tt s s s s s s s   tt s s s s s s s s s  s s s  s  e
|-----------------------------------|---------------------------------------|
|-----------------------------------|---------------------------------------|
|----------5----------------4-------|----------7---------11-----11/15-15----|
|-00-0-0-0---0-0-0-00-0-0-0---0-0-0-|-00-0-0-0---0-0-0-0----0-0-------------|

Riff 2 x1
  se.  q    se.  q       se.  q    se se
|---------------------|------------------|
|---------------------|7-----------------|
|---------------------|8-----------------|
|-36--(6)^--36--(6)^--|--36--(6)^--36-36-|

Fill 1A x1

|--------------------|-----------------|
|4-------------------|7----------------|
|4-------------------|8----------------|
|--50--(0)--50--(0)--|--50--(0)--50-50-|

Riff 2 x1

Riff 1A x2

Riff 2 x1

Fill 1A x1

Riff 2 x1

Fill 1B x1
   se.  q   se.  q     se.  q   se se tttt
|--------------------|---------------------|
|4-------------------|---------------------|
|4-------------------|---------------------|
|--50--(0)--50--(0)--|-50--(0)--50-50-1000-|

Riff 3 x8
  s s s s s s s s s s s s s s tttt   s s s s s s s s s s s s s s tttt
|----------------------------------|----------------------------------|
|----------------------------------|----------------------------------|
|----------------------------------|----------------------------------|
|-6-0-0-0-0-0-0-0-0-0-0-0-0-0-1000-|-6-0-0-0-0-0-1-0-0-3-4-0-0-0-1000-|

Riff 4 x7
  s. s. tt s. s. tt s.  s. s s s tttt
|-------------------------------------|
|-------------------------------------|
|-------------------------------------|
|-6--8--00-3--6--00-5^--0--0-0-0-0000-|

Fill 2 x1
  s. s. tt s. s. tt s.  s.  q      e
|---------------------------------------|
|---------------------------------/12\--|
|---------------------------------------|
|-6--8--00-3--6--00-5^--0--(0)----------|

Riff 1B x2
  s. s. s s. s. s s. s. s s. s. s   s. s. s s. s. s s e  s s s s tt
|---------------------------------|---------------------------------|
|---------------------------------|----------------------------0----|
|---------5---------------4-------|---------7---------1----1p0------|
|-0--0--0----0--0-0--0--0----0--0-|-0--0--0----0--0-0----0-------00-|

  s. s. s s. s. s s. s. s s. s. s   s. s. s s. s. s s e   s s  s  e
|---------------------------------|-----------------------------------|
|---------------------------------|-----------------------------------|
|---------5---------------4-------|---------7---------11----11/15-15--|
|-0--0--0----0--0-0--0--0----0--0-|-0--0--0----0--0-0-----0-----------|

End with two quick open Ds
            
Submit corrections

↑ Back to top | Tablatures and chords for acoustic guitar and electric guitar, ukulele, drums are parodies/interpretations of the original songs. You may use it for private study, scholarship, research or language learning purposes only