Home » L » Lamb Of God »

Lamb Of God - Overlord Tabs

Artists:  A B C D E F G H I J K L M N O P Q R S T U V W X Y Z # 

Overlord Tabs

(ver. 1) Click to play this song!
Lamb Of God
  Intro

e|---------------------------|
B|---------------------------|
G|---------------------------|
D|---------------------------| x2
A|--3h5----5--5----5/7-7-----|
D|------0--3-----3-------0---|

  Solo Rythm 1

e|------------------------------------------------------|
B|------------------------------------------------------|
G|------------------------------------------------------|
D|---------------------------------------3-------5-5h7--|
A|--3h5----5--5----5/7-7----3h5----5--5----5-3----------|
D|------0--3-----3-------0------0--3-----------0--------|

  Solo 1 (Use neck pickup)

e|------------------10----------------------------------------------------|
B|--13-----------------13p10-------------------------------------13b15~---|
G|--12b13r12b13~~------------13b-r13p10-12-10~----------10--------x-------|
D|---------------------------------------------12p10-------12~~---x-------|
A|---------------------------------------------------12-------------------|
D|------------------------------------------------------------------------|

  Riff 1 (x2)

e|------------------------------|
B|------------------------------|
G|------------------------------|
D|------------------------------| x3
A|--3h5----5--5-5-----5/7-7-----|
D|------0--3------3-3-------0---|


e|--------------------------------|
B|--------------------------------|
G|--------------------------------|
D|---------------3-------5-5h7----|
A|--3h5----5--5----5-3------------|
D|------0--3-----------0----------|


 Riff 2  (x2)

e|--------------------------------|
B|--------------------------------|
G|--------------------------------|
D|--------------------------------|
A|--0-6--0-0-6-5---3-0-------7----|
D|--0-6--0-0-6-5---3-0-3/10~-7----|


e|--------------------------------------|
B|--------------------------------------|
G|--------------------------------------|
D|--------------------------------------|
A|--------------------------------------|
D|--0-12~--0-0-0-0-12~--0-0-0-0-12~-0---|

  Riff 3

e|---------------------------------|
B|---------------------------------|
G|---------------------------------|
D|---------------------------------|
A|--0-6--0-0-6-5---3-0-------7-----|
D|--0-6--0-0-6-5---3-0-3/10~-7-----|

e|------------------------------------------|
B|------------------------------------------|
G|------------------------------------------|
D|------------------------------------------|
A|--0-0-3--5---1010/12--0-0-3--5---55/7-----|
D|--0-0-3--5---1010/12--0-0-3--5---55/7-----|

e|----------------------------------|
B|----------------------------------|
G|----------------------------------|
D|----------------------------------|
A|--0-0-3--5---1010/12--0-0-3--5----|
D|--0-0-3--5---1010/12--0-0-3--5----|


Riff 1 (x2)

e|--------------------------------|
B|--------------------------------|
G|--------------------------------|
D|--------------------------------| x3
A|--3h5----5--5-5-----5/7-7-------|
D|------0--3------3-3-------0-----|


e|-----------------------------------|
B|-----------------------------------|
G|-----------------------------------|
D|---------------3-------5-5h7-------|
A|--3h5----5--5----5-3---------------|
D|------0--3-----------0-------------|


 Riff 2  (x2)

e|----------------------------------|
B|----------------------------------|
G|----------------------------------|
D|----------------------------------|
A|--0-6--0-0-6-5---3-0-------7------|
D|--0-6--0-0-6-5---3-0-3/10~-7------|


e|---------------------------------------|
B|---------------------------------------|
G|---------------------------------------|
D|---------------------------------------|
A|---------------------------------------|
D|--0-12~--0-0-0-0-12~--0-0-0-0-12~-0----|

  Riff 3

e|----------------------------------|
B|----------------------------------|
G|----------------------------------|
D|----------------------------------|
A|--0-6--0-0-6-5---3-0-------7------|
D|--0-6--0-0-6-5---3-0-3/10~-7------|

e|-------------------------------------------|
B|-------------------------------------------|
G|-------------------------------------------|
D|-------------------------------------------|
A|--0-0-3--5---1010/12--0-0-3--5---55/7------|
D|--0-0-3--5---1010/12--0-0-3--5---55/7------|

e|-----------------------------------|
B|-----------------------------------|
G|-----------------------------------|
D|-----------------------------------|
A|--0-0-3--5---1010/12--0-0-3--5-----|
D|--0-0-3--5---1010/12--0-0-3--5-----|

  Solo Rythm 2 (x2)

e|-----------------------------------------------|
B|-----------------------------------------------|
G|-----------------------------------------------|
D|------------8*h10p8----------------------------|
A|--8-8-8-8-8---------10--5-5-5-5-5-------5------|
D|--8-8-8-8-8-------------5-5-5-5-5-5h6p5--------|

e|---------------------------------------|
B|---------------------------------------|
G|---------------------------------------|
D|---------------------------------------|
A|---------------------------------------|
D|--0-12~--0-0-0-0-12~--0-0-0-0-12~--0---|


Solo 2 (Mark Morton)

e|--10-----12-----13------------------------------------------|
B|--13b~~--15b~~--16b~~\--10~~--------------------------------|
G|------------------------10~~---------------10---------------|
D|-------------------------------12-11-10-------12~~~-12*\----|
A|----------------------------------------12------------------|
D|------------------------------------------------------------|
                               pm .  .  .  .

e|-------------------------------------------------------------|
B|-------------------------------------------------------------|
G|-----------------------10*----10-12b-r12p10----10\9----------|
D|----------9----9-10-12----12----------------12------10~~-----|
A|--9-10-12---12-----------------------------------------------|
D|-------------------------------------------------------------|
 pm . .  .    .

e|----------------------------------------------/9-9b10~----|
B|----------------------------------------------------------|
G|----------9-10b-r10p9-10--9h10p9--------------------------|
D|-----9-10------------------------10-12-12~~\--------------|
A|--12------------------------------------------------------|
D|----------------------------------------------------------|


e|--10--------------------------------------------------------|
B|-----13-10-13-10--------------------------------------------|
G|-----------------12-10----12b*-r12p9------------------------|
D|-----------------------12-------------12-10----10-12~~\-----|
A|--------------------------------------------12--------------|
D|------------------------------------------------------------|

  Riff 4 (x2)

e|-----------------------------------------------|
B|-----------------------------------------------|
G|-----------------------------------------------|
D|------------8*h10p8----------------------------|
A|--8-8-8-8-8---------10--5-5-5-5-5-------5------|
D|--8-8-8-8-8-------------5-5-5-5-5-5h6p5--------|

e|---------------------------------------|
B|---------------------------------------|
G|---------------------------------------|
D|---------------------------------------|
A|---------------------------------------|
D|--0-12~--0-0-0-0-12~--0-0-0-0-12~--0---|

  Riff 4 End

e|----------------------------------------------------------|
B|----------------------------------------------------------|
G|----------------------------------------------------------|
D|----------------------------------------------------------|
A|--8-8-8-8-8-8*p6----5-5-5-5-5-5-5-5-5-5-5-5-5-5-5-5-5-5---|
D|--8-8-8-8-8------8--5-5-5-5-5-5-5-5-5-5-5-5-5-5-5-5-5-5---|
                   pm   * * * * * * * * * * * * * *
            
Submit corrections

↑ Back to top | Tablatures and chords for acoustic guitar and electric guitar, ukulele, drums are parodies/interpretations of the original songs. You may use it for private study, scholarship, research or language learning purposes only