Home » L » Lamb Of God »

Lamb Of God - Blacken The Cursed Sun Tabs

Artists:  A B C D E F G H I J K L M N O P Q R S T U V W X Y Z # 

Blacken The Cursed Sun Tabs

(ver. 1) Click to play this song!
Lamb Of God
                    Blacken The cursed Sun
                           Lamb Of God
                            Sacrament
words and music by C.Adler,D.Blythe,J.Campbell,M.Morton and W.Adler


Drop D
(low to high)
D-A-D-G-B-E


INTRO
FAST=158
W/delay
Gtr1(0:00-0:11)
E------------------------|------------------------|-------------------------|
B------------------------|------------------------|-------------------------|
G------------------------|------------------------|-------------------------|
D------------------------|------------------------|-------------------------|
A-3/5-5-5-5-5-5-5-5-5-5-5|-5/8-8-8-8-8-8-8-8-8-8-8|-8\7-7-7-7-7-7-7-7-7-7-7-|
D------------------------|------------------------|-------------------------|


E------------------------|------------------------|
B------------------------|------------------------|
G------------------------|------------------------|
D------------------------|------------------------|
A-7\1-1-1-1-1-1/4-4-4-4-4|-4h5-5-5-5-5-5-5-5-5-5-5|
D------------------------|-----0------------------|


E------------------------|------------------------|--------------------------|
B------------------------|------------------------|--------------------------|
G------------------------|------------------------|--------------------------|
D------------------------|------------------------|--------------------------|
A-5/8-8-8-8-8-8-8-8-8-8-8|-8\7-7-7-7-7-7-7-7-7-7-7|7\3-3-3-3-3-3-3/6-6-6-6-6-|
D------------------------|------------------------|--------------------------|


Gtr2 (0:11-0:22)
E------------------------|------------------------|-------------------------|
B------------------------|------------------------|-------------------------|
G------------------------|------------------------|-------------------------|
D-5\3-3-3-3-3-3-3-3-3-3-3|-3/7-7-7-7-7-7-7-7-7-7-7|-7\6-6-6-6-6-6-6-6-6-6-6-|
A------------------------|------------------------|-------------------------|
D------------------------|------------------------|-------------------------|

Gtr1
E------------------------|------------------------|-------------------------|
B------------------------|------------------------|-------------------------|
G------------------------|------------------------|-------------------------|
D------------------------|------------------------|-------------------------|
A-6\5-5-5-5-5-5-5-5-5-5-5|-5/8-8-8-8-8-8-8-8-8-8-8|-8\7-7-7-7-7-7-7-7-7-7-7-|
D------------------------|------------------------|-------------------------|

Gtr2
E------------------------|------------------------|-------------------------|
B------------------------|------------------------|-------------------------|
G------------------------|------------------------|-------------------------|
D-6\1-1-1-1-1-1/5-5-5-5-5|-5\3-3-3-3-3-3-3-3-3-3-3|-3/7-7-7-7-7-7-7-7-7-7-7-|
A------------------------|------------------------|-------------------------|
D------------------------|------------------------|-------------------------|

Gtr1
E------------------------|------------------------|-------------------------|
B------------------------|------------------------|-------------------------|
G------------------------|------------------------|-------------------------|
D------------------------|------------------------|-------------------------|
A-7\1-1-1-1-1-1/4-4-4-4-4|-4h5-5-5-5-5-5-5-5-5-5-5|-5/8-8-8-8-8-8-8-8-8-8-8-|
D------------------------|-----0------------------|-------------------------|

Gtr2                               Gtr1
E------------------------|        E------------------------|
B------------------------|        B------------------------|
G------------------------|        G------------------------|
D-7\6-6-6-6-6-6-6-6-6-6-6|        D------------------------|
A------------------------|        A-8p7-7-7-7-7-7-7-7-7-7-7|
D------------------------|        D------------------------|


Gtr2 & Gtr1 (0:22)
E------------------------|
B------------------------|
G------------------------|
D------------------------|
A------------------------|
D-8-7-5-7-5\4-5-4\1-3-1-4|

Gtr2(0:24-0:30)
E------------------------|
B------------------------|
G-5/7-7-7-7-7-7-7-7-7-7-7|
D-x---x-x-x-x-x-x-x-x-x-x|
A-3/5-5-5-5-5-5-5-5-5-5-5|
D------------------------|


Gtr1
E------------------------|
B------------------------|
G-7-7-7-7-7-7-7-7-7-7-7-7|
D-x-x-x-x-x-x-x-x-x-x-x-x|
A-5-5-5-5-5-5-5-5-5-5-5-5|
D-0-0-0-0-0-0-0-0-0-0-0-0|

Gtr2
E-----------------------------------|-------------------------|
B-----------------------------------|-------------------------|
G-7/10-10-10-10-10-10-10-10-10-10-10|-10\9-9-9-9-9-9-9-9-9-9-9|
D-x--x--x--x--x--x--x--x--x--x--x--x---x---x-x-x-x-x-x-x-x-x-x|
A-5/-8--8--8--8--8--8--8--8--8--8--8|--8\7-7-7-7-7-7-7-7-7-7-7|
D-----------------------------------|-------------------------|

Gtr1
E-----------------------------------|-------------------------|
B-----------------------------------|-------------------------|
G-7-7-7-7-7-7-7-7-7-7-7-7-7-7-7-7-7-|7-7-7-7-7-7-7-7-7-7-7-7-7|
D-x-x-x-x-x-x-x-x-x-x-x-x-x-x-x-x-x-|x-x-x-x-x-x-x-x-x-x-x-x-x|
A-5-5-5-5-5-5-5-5-5-5-5-5-5-5-5-5-5-|5-5-5-5-5-5-5-5-5-5-5-5-5|
D-0-0-0-0-0-0-0-0-0-0-0-0-0-0-0-0-0-|0-0-0-0-0-0-0-0-0-0-0-0-0|

Gtr2
E------------------------|
B------------------------|
G-9\3-3-3-3-3-3/6-6-6-6-6|
D-x-x-x-x-x-x-x-x-x-x-x-x|
A-7\1-1-1-1-1-1/4-4-4-4-4|
D------------------------|
Gtr1
E------------------------|
B------------------------|
G-7-7-7-7-7-7-7-7-7-7-7-7|
D-x-x-x-x-x-x-x-x-x-x-x-x|
A-5-5-5-5-5-5-5-5-5-5-5-5|
D-0-0-0-0-0-0-0-0-0-0-0-0|


Gtr2 & Gtr1
E------------------------|----------------------------------|
B------------------------|----------------------------------|
G-6/7-7-7-7-7-7-7-7-7-7-7|7/10-10-10-10-10-10-10-10-10-10-10|
D-x---x-x-x-x-x-x-x-x-x-x|x-----x--x--x--x--x--x--x--x--x--x|
A-4-5-5-5-5-5-5-5-5-5-5-5|5/-8--8--8--8--8--8--8--8--8--8--8|
D------------------------|----------------------------------|

Gtr2 & Gtr1
E-------------------------|------------------------|
B-------------------------|------------------------|
G-10\9-9-9-9-9-9-9-9-9-9-9|-9\5-5-5-5-5-5/8-8-8-8-8|
D--x-x-x-x-x-x-x-x-x-x-x-x|-x-x-x-x-x-x-x---x-x-x-x|
A--8-7-7-7-7-7-7-7-7-7-7-7|-7\3-3-3-3-3-3/6-6-6-6-6|
D-------------------------|------------------------|

Gtr2 & Gtr1
E------------------------|-----------------------------------|
B------------------------|-----------------------------------|
G-8\7-7-7-7-7-7-7-7-7-7-7|-7/10-10-10-10-10-10-10-10-10-10-10|
D-x---x-x-x-x-x-x-x-x-x-x|-x--x--x--x--x--x--x--x--x--x--x--x|
A-6\5-5-5-5-5-5-5-5-5-5-5|-5/-8--8--8--8--8--8--8--8--8--8--8|
D------------------------|-----------------------------------|


Gtr2 & Gtr1
E------------------------|-----------------------|--------------------------|
B------------------------|-----------------------|--------------------------|
G10\9-9-9-9-9-9-9-9-9-9-9|9\3-3-3-3-3-3/6-6-6-6-6|6/7-7-7-7-7-7-7-7-7-7-7-7-|
D-x---x-x-x-x-x-x-x-x-x-x|x-x-x-x-x-x-x-x-x-x-x-x|x---x-x-x-x-x-x-x-x-x-x-x-|
A-8-7-7-7-7-7-7-7-7-7-7-7|7\1-1-1-1-1-1/4-4-4-4-4|4/5-5-5-5-5-5-5-5-5-5-5-5-|
D-----------------------|------------------------|--------------------------|


Gtr2 & Gtr1
E----------------------------------|------------------------|
B----------------------------------|------------------------|
G7/10-10-10-10-10-10-10-10-10-10-10|10\9-9-9-9-9-9-9-9-9-9-9|
Dx--x--x--x--x--x--x--x--x--x--x--x|-x---x-x-x-x-x-x-x-x-x-x|
A5/-8--8--8--8--8--8--8--8--8--8--8|-8\--7-7-7-7-7-7-7-7-7-7|
D----------------------------------|------------------------|


Gtr2 & Gtr1  (0:47)
E------------------------|
B------------------------|
G------------------------|
D------------------------|
A------------------------|
D-8-7-5-7-5\4-5-4\1-3-1-4|

VERSE

 Gtr2 & Gtr1 0:49
E------------------------|-----------------------|------------------------|
B------------------------|-----------------------|------------------------|
G------------------------|-----------------------|------------------------|
D------------------------|-----------------------|------------------------|
A------------------------|-----------------------|------------------------|
D-3p0-0-0-0-0-0-0-0-0-1-4|3p0-0-0-0-0-0-0-0-0-1-4|-3h6-6-6-6-6-6-6-6-6-6-6|

Gtr2                            Gtr1
E------------------------|     E------------------------|
B------------------------|     B------------------------|
G------------------------|     G------------------------|
D------------------------|     D------------------------|
A-2-3-3-3-3-3-2-2-2-2-2-2|     A------------------------|
D------------------------|     D-0-1-1-1-1-1-1-1-1-1-1-1|

Gtr2 & Gtr1
E------------------------|-----------------------|------------------------|
B------------------------|-----------------------|------------------------|
G------------------------|-----------------------|------------------------|
D------------------------|-----------------------|------------------------|
A------------------------|-----------------------|------------------------|
D-3p0-0-0-0-0-0-0-0-0-1-4|3p0-0-0-0-0-0-0-0-0-1-4|-3h6-6-6-6-6-6-6-6-6-6-6|

Gtr2
E------------------------|------------------------|
B------------------------|------------------------|
G------------------------|------------------------|
D------------------------|------------------------|
A------------------------|-6-6-6-6-6-6-5-5-5-5-5-5|
D-3p7-7-7-7-7-3p6-6-6-6-6|------------------------|

Gtr1
E------------------------|------------------------|
B------------------------|------------------------|
G------------------------|------------------------|
D------------------------|------------------------|
A------------------------|------------------------|
D-3p7-7-7-7-7-3p6-6-6-6-6|4-4-4-4-4-4-4-4-4-4-4-4-|


Gtr2 & Gtr1 (1:00)
E------------------------|----------------------|------------------------|
B------------------------|----------------------|------------------------|
G------------------------|----------------------|------------------------|
D------------------------|----------------------|------------------------|
A-3p0-0-0-0-0-0-0-0------|-3p0-0-0-0-0-0-0------|------------------------|
D-3p0-0-0-0-0-0-0-0-0-1-4|-3p0-0-0-0-0-0-0-0-1-4|-3p6-6-6-6-6-6-6-6-6-6-6|


Gtr2                            Gtr1
E------------------------|     E------------------------|
B------------------------|     B------------------------|
G------------------------|     G------------------------|
D------------------------|     D------------------------|
A-2-3-3-3-3-3-2-2-2-2-2-2|     A------------------------|
D------------------------|     D-0-1-1-1-1-1-1-1-1-1-1-1|


Gtr2 & Gtr1
E------------------------|----------------------|
B------------------------|----------------------|
G------------------------|----------------------|
D------------------------|----------------------|
A-3p0-0-0-0-0-0-0-0------|-3p0-0-0-0-0-0-0------|
D-3p0-0-0-0-0-0-0-0-0-1-4|-3p0-0-0-0-0-0-0-0-1-4|

Gtr2
E|------------------------|------------------------|
B|------------------------|------------------------|
G|------------------------|------------------------|
D|------------------------|------------------------|
A|-6-6-6-6-6-6-5-5-5-5-5-5|-3-3-3-3-3-3-2-2-2-2-2-2|
D|------------------------|------------------------|

Gtr1
E|------------------------|------------------------|
B|------------------------|------------------------|
G|------------------------|------------------------|
D|------------------------|------------------------|
A|------------------------|------------------------|
D|4-4-4-4-4-4-4-4-4-4-4-4-|-1-1-1-1-1-1-1-1-1-1-1-1|

PRE-CHORUS
Gtr2 & Gtr1(1:12)                                (1:16)
E------------------------|------------------------|--|
B------------------------|------------------------|--|
G------------------------|------------------------|--|
D-------------7-7-7-7-7-7|-7-7-7-7-7-7-7-7-7-7-7-6|-4|
A-5-5-5-5-5-5-5-5-5-5-5-5|-5-5-5-5-5-5-5-5-5-5-5-5|-0|
D-4-4-4-4-4-4-4-4-4-4-4-4|-3-3-3-3-3-3-3-3-3-3-3-3|-0|

Gtr2 & Gtr1
E------------------------|--------------------------------|
B------------------------|--------------------------------|
G------------------------|--------------------------------|
D------------------------|------Repeat--PRE-CHORUS--------|
A-3/5---8p7---7\1---1/4--|--------------------------------|
D-----0-----0-----0-----0|--------------------------------|


Break Down (2:52)
E---------------------|-----------------------|------------------------------|
B---------------------|-----------------------|------------------------------|
G---------------------|------------------------|-----------------------------|
D---------------------|-----------------------|-6h7p6---6--------------------|
A-0-figure-out-rhythem|-----------------------|-------8---8-4-7h8p7-4-8---6--|
D-0-------------------|-8-7-5-7-5\4-5-4\1-3-1-4|-------------------------6---|

 3:30
E------------------------|------------------------|-------------------------|
B------------------------|------------------------|-------------------------|
G------------------------|------------------------|-------------------------|
D------------------------|------------------------|-----4-------------------|
A-----5------------------|-----5------------------|-------0-0-0-0-0-0-0-0---|
D-0h4---4-4-4-4-4-4-4p7-7|-0p3---3-3-3-3-3-3-3/8-8|-0h4---0-0-0-0-0-0-0-0---|


E-----------------------|------------------------|----------------------|
B-7---------------------|------------------------|----------------------|
G--8-7-6-5-7-6-5-6-8-7-6|------------------------|----------------------|
D-----------------------|------------------------|----------------------|
A-----------------------|-----5------------------|-----5----------------|
D-----------------------|-0h4---4-4-4-4-4-4-4p7-7|-0h3---3-3-3-3-3-3/8-8|

BRIDGE
3:38
E--|---------|--------------------------|------------------------|
B--|-pick----|--------------------------|------------------------|
G--|-scr*pe--|--------------------------|------------------------|
D--|---------|-4-4-4-4-4-4-4-4-4-4------|-3-3-3-3-3-3-3-3-3------|
A-0|-<<<<<<<<|-4-4-4-4-4-4-4-4-4-4------|-3-3-3-3-3-3-3-3-3------|
D-0|-<<<<<<<<|-4-4-4-4-4-4-4-4-4-4-4-7-4|-3-3-3-3-3-3-3-3-3-3-8-1|


E------------------------|------------------------|
B------------------------|------------------------|
G------------------------|------------------------|
D-4-4-4-4-4-4-4-4-4-4-4-4|------------------------|
A-0-0-0-0-0-0-0-0-0-0-0-0|-5----------------------|
D-0-0-0-0-0-0-0-0-0-0-0-0|---8-7-6-5-7-6-5-6-8-7-6|


                  Im pretty sure that all you need is here
                 If anything needs to be corrected hit me up
            
Submit corrections

↑ Back to top | Tablatures and chords for acoustic guitar and electric guitar, ukulele, drums are parodies/interpretations of the original songs. You may use it for private study, scholarship, research or language learning purposes only