Home » L » Lamb Of God »

Lamb Of God - Omerta Bass

Artists:  A B C D E F G H I J K L M N O P Q R S T U V W X Y Z # 

Omerta Bass

(ver. 1) Click to play this song!
Lamb Of God
----------------------------------------------------------------------------
			     Omerta - Lamb of God
----------------------------------------------------------------------------


Tuning: Drop D

There was a lot of guitar 'wah' work and it doesn't sound like the bass follows it so I 
this is the bass line for the whole song.

Intro x4
G|-----------------------------------------|-----------|
D|-----------------------------------------|-------0---|
A|--------5------------4------------7------|-1-1-0---0-|
D|-000-00---000-000-00---000-000-00---0000-|-----------|

Verse x4
G|-----------------------------------------|-----------|
D|-----------------------------------------|-------0---|
A|--------5------------4------------7------|-1-1-0---0-|
D|-000-00---000-000-00---000-000-00---0000-|-----------|

Chorus     [x4]
G||--------||--------------|-----|-----|-------|
D||.------.||--------------|-----|-----|-------|
A||.------.||--------------|-----|-----|-------|
D||--3-6b--||--3-6b--3---0-|-1-0-|-1-0-|-10-10-|

Pre-Verse   [x5]
G||---------||
D||.-------.||
A||.-------.||
D||--3-6b---||

Verse x4
G|-----------------------------------------|-----------|
D|-----------------------------------------|-------0---|
A|--------5------------4------------7------|-1-1-0---0-|
D|-000-00---000-000-00---000-000-00---0000-|-----------|

Chorus x2  [x4]
G||--------||-------------|-----|-----|-------|
D||.------.||-------------|-----|-----|-------|
A||.------.||-------------|-----|-----|-------|
D||--3-6b--||--3-6b--3--0-|-1-0-|-1-0-|-10-10-|

Bridge
G|--------|-------|----------|-------|---------|
D|--------|-Pause-|----------|-Pause-|---------|
A|--------|-------|----------|-------|---------|
D|-0000-5-|-------|-0-1--1-4-|-------|--0000-5-|

                                                          [x6]
G||------------|--------------|---------------------------||
D||.-----------|--------------|--------------------------.||
A||.-----------|--------------|--------------------------.||
D||--0000-0000-|-0000-00-0000-|-5-0000-13-00-34-000-0000--||

                                      [x8]
G||--------|-------|------|-----------||
D||.-------|-------|------|----------.||
A||.-------|-------|------|----------.||
D||--6b-8b-|-3b-6b-|-5b-0-|-0-0-0000--||

Intro x4
G|--------------------------------------|-----------|
D|--------------------------------------|-------0---|
A|-------5----------4-----------7-------|-1-1-0---0-|
D|-0-0-0---00-0-0-0----00-0-0-0---0-0-0-|-----------|

Ending
G|-----|
D|-----|
A|-----|
D|-0-0-|
            
Submit corrections

↑ Back to top | Tablatures and chords for acoustic guitar and electric guitar, ukulele, drums are parodies/interpretations of the original songs. You may use it for private study, scholarship, research or language learning purposes only