Home » K » Kurt Vile »

Kurt Vile - Jesus Fever Tabs

Artists:  A B C D E F G H I J K L M N O P Q R S T U V W X Y Z # 

Jesus Fever Tabs

(ver. 2) Click to play this song!
Kurt Vile
 Rating:
4/5 (4 votes)
                Kurt Vile - Jesus Fever
=======================
Standard Tuning
Capo 3rd

D       - 000323
A/E 6th - 002222
C       - 032010
G 6th   - 320000
F       - 003211
Am      - 002210
Em      - 022000

Note: When you get used to playing this, try using the appropriate chords to fill 
in-between the notes. (P.S. My first tab here)

 D               A/E 6th  C        G 6th
---2-------2---0--2-----------------0-0-0--------------------------------|
-3---3-2-3---3------2-------1-0-----0-0-0--------------------------------|
-2---2---2---2--------2---------0---0-0-0--------------------------------| x2
-0---0---0---0----------0-2-------0--------------------------------------|
-------------------------------------------------------------------------|
-------------------------------------------------------------------------|

 C         F        C       G 6th  Am  C     F       C       G 6th
------------1-0--------------0-0-0------------1-0-------------0-0-0------|
---1-0----0------1---1-0-----0-0-0-1-1-1----1-----1---1-0-----0-0-0------|
-------0h2---------0-----0---0-0-0-2-2---0h2--------0-----0---0-0-0------|
---------------------------0-------2-2-2--------------------0------------|
-3-------------------------------------3---------------------------------|
-------------------------------------------------------------------------|

 Em        C      G 6th
-----------------------0-------0-----------------------------------------|
-------------1-4---3-----3-------3---------------------------------------|
---0-3-----------0---0-----0---------------------------------------------|
-------2-0-2-----------------0-------------------------------------------|
-------------------------------------------------------------------------|
-0-----------------------------------------------------------------------|

    D                A/E 6th
I'd pack my suitcase with myself
    C           G 6th
But I'm already gone
D                     A/E 6th
Cleanse myself with vitamin health
    C           G 6th
But I'm already gone

  C                        F
I saw it risin' through the horizon
   C         G 6th
And I saw it fall
  Am    C              F
A Jesus fever's flowin' all over your
C             G 6th
Believers and lovers

     D                    A/E 6th
In a black hole I found a broken skull
    C           G 6th
Now I'm already gone
        D                             A/E 6th
You can write my whole life down in a little book
     C           G 6th
When I'm already gone

C                     F
I started shaking and my heart breaking
   C         G 6th
And my belly crawls
  Am    C              F
A Jesus Fever's flowin' all over your
C             G 6th
Believers and lovers
     D                        A/E 6th
When I'm a ghost, I'll see no reason to run
     C           G 6th
When I'm already gone
      D                         A/E 6th
If it wasn't taped, you could escape this song
    D           G 6h
But I'm already gone
            
Submit corrections

↑ Back to top | Tablatures and chords for acoustic guitar and electric guitar, ukulele, drums are parodies/interpretations of the original songs. You may use it for private study, scholarship, research or language learning purposes only