Home » K » Kurt Vile »

Kurt Vile - Pretty Pimpin Tabs

Artists:  A B C D E F G H I J K L M N O P Q R S T U V W X Y Z # 

Pretty Pimpin Tabs

(ver. 2) Click to play this song!
Kurt Vile
 Rating:
5/5 (1 vote)
                Main Riff

e|----------------------------------|----------------------------------|
B|----------------------------------|----------------------------------|
G|----------1p0-------1-----1p0-----|----------1p0-------1-----1p0-----|
D|----3-----------------------------|----3-----------------------------|
A|-1-----1---------1-----1----------|-4-----4---------4-----4----------|
E|----------------------------------|----------------------------------|

e|----------------------------------|----------------------------------|
B|----------------------------------|----------------------------------|
G|----------1---------------1-------|------------1---------------1-----|
D|-------3-----3---------3-----3----|-------1h3-------------1h3--------|
A|----3---------------1—-------1----|-4--4------------6--6-------------|
E|-1---------------4----------------|----------------------------------|        


Bridge / Last Phrase Alt.

e|----------------------------------|
B|---------1--6--4------6--4--------|
G|------------------5---------5-----|
D|----1/3------------------------3--|
A|-4--------------------4-----------|
E|----------------------------------|


Bridge

e|------------------------------1---|
B|------------------------------1---|
G|-----------3-----1h3p1--------1---|
D|--3p1h3------3----------33--------|
A|---------------1------------------|
E|----------------------------------|

e|----------------------------------|----------------------------------|
B|----------------------------------|----------------------------------|
G|----------1---------------1-------|------------1---------------1-----|
D|-------3-----3---------3-----3----|-------1h3-------------1h3--------|
A|----3---------------1—-------1----|-4--4------------6--6-------------|
E|-1---------------4----------------|----------------------------------|


Solo

e|----------------------------------|----------------------------------|
B|-6--6-----------------------------|-6--4-----------------------------|
G|-5—-5--5--------------------------|-5--5------10---------------------|
D|----------------------------------|-------8b-------------------------|
A|---------------------—------------|----------------------------------|
E|----------------------------------|----------------------------------|

e|----------------------------------|----------------------------------|
B|----------------------------------|-/4—4h6----------------------6----|
G|-3—-1-----------------------------|-/5-5------------------------5----|
D|-3--3--3--------------------------|----------------------------------|
A|---------------------—------------|----------------------------------|
E|----------------------------------|----------------------------------|

e|----------------------------------|----------------------------------|
B|-----------------6----------------|-6---------------4----------------|
G|-3b—-1--3--------5----------------|-5---------------5-------1--------|
D|-----------3----------------------|----------------------------------|
A|---------------------—------------|----------------------------------|
E|----------------------------------|----------------------------------|
            
Submit corrections

↑ Back to top | Tablatures and chords for acoustic guitar and electric guitar, ukulele, drums are parodies/interpretations of the original songs. You may use it for private study, scholarship, research or language learning purposes only