Home » K » Kurt Vile »

Kurt Vile - Thats Life Tho Almost Hate To Say Tabs

Artists:  A B C D E F G H I J K L M N O P Q R S T U V W X Y Z # 

Thats Life Tho Almost Hate To Say Tabs

(ver. 1) Click to play this song!
Kurt Vile
d|----------------|--------------|-3-----------|-2-----------|
a|----------------|-3------------|------3------|-----0-------|
G|-------0--------|------0-------|-------------|---------0---|
D|-3---------3----|----------3---|---------3---|-------------|
A|-----3-------3--|----3-------3-|----3------3-|----3------3-|
D|-3-------3------|-3------3-----|-3------3----|-3-----3-----|



d|-0--------------|--------------|-------------|-------------|
a|--------0-------|--------------|-------------|-------------|
G|-----------0----|---------0----|---------0---|--------0----|
D|--------------5\4-------------4\2-----------2p0------------|
A|-----0-------0--|----0-------0-|----0------0-|----0------0-|
D|-0-------0------|-0------0-----|-0------0----|-0-----0-----|
            
Submit corrections

↑ Back to top | Tablatures and chords for acoustic guitar and electric guitar, ukulele, drums are parodies/interpretations of the original songs. You may use it for private study, scholarship, research or language learning purposes only