Home » K » Kurt Vile »

Kurt Vile - Pretty Pimpin Tabs

Artists:  A B C D E F G H I J K L M N O P Q R S T U V W X Y Z # 

Pretty Pimpin Tabs

(ver. 1) Click to play this song!
Kurt Vile
Capo 1

Main Riff (Intro/Verse)

Tempo q = 80

  e  e  e  s s  e  e  e  s s     e  e  e  s s  e  e  e  s s     e  s s s s e  e  s s s s e    
e------------------------------|------------------------------|-----------------------------|
B------------------------------|------------------------------|-----------------------------|
G----------0-------------0-----|----------0-------------0-----|----------0-------------0----|
D----2-------4-----5-------4---|----2-------4-----5-------4---|------2-------------0--------|
A-0-----0-------0-----0--------|-3-----3-------3-----3--------|----2---2---0-----2---2---0--|
E------------------------------|------------------------------|-0-------------3-------------|

e  e  s s q    e  e  s s q
e-------------------------------|
B-------------------------------|
G-----------0--------------0----|
D-------0h2------------0h4------|
A-3--3-----------5--5-----------|
E-------------------------------|

Fill (This is played at the end of the verse, after the first three bars of the riff)

  e  s s s s e  s s s s q
e---------------0------------|
B----------0--------3--------|
G------0----------------0----|
D----2---2---0----4---4------|
A-3--------------------------|
E----------------------------|

Bridge (1st time)

  s s s s q    e+ s s e+     e  s s s e+ e  s s q      e  s s s s e  e  s s s s e   
e-0------------------------|-------------------------|-----------------------------|
B-----3--------------------|-------------------------|-----------------------------|
G---------4-----------4----|-2----0h2h0---------0----|----------0-------------0----|
D---2---2------2--0h2------|----2--------2--0h2------|------2-------------0--------|
A--------------------------|-------------3-----------|----2---2---0-----2---2---0--|
E--------------------------|-------------------------|-0-------------3-------------|

  e  e  s s q    e  e  s s q
e-------------------------------|
B-------------------------------|
G-----------0--------------0----|
D-------0h2------------0h4------|
A-3--3-----------5--5-----------|
E-------------------------------|

  s s s s q    e+ s s e+     e  s s s e+ h             e  s s s s e  e  s s s s e    
e-0------------------------|-------------------------|-----------------------------|
B-----3--------------------|-------------------------|-----------------------------|
G---------4-----------4----|-2----0h2h0--------------|----------0-------------0----|
D---2---2------2--0h2------|----2--------2-----------|------2-------------0--------|
A--------------------------|-------------3-----------|----2---2---0-----2---2---0--|
E--------------------------|-------------------------|-0-------------3-------------|

  e  e  s s q    e  e  s s q
e-------------------------------|
B-------------------------------|
G-----------0--------------0----|
D-------0h2------------0h4------|
A-3--3-----------5--5-----------|
E-------------------------------|

  s s s s q    e+ s s e+     e  s s s e+ q    q      e  s s s s e  e  s s s s e  
e-0------------------------|-----------------------|-----------------------------|
B-----3--------------------|------------------3----|-----------------------------|
G---------4-----------4----|-2----0h2h0-------2----|----------0-------------0----|
D---2---2------2--0h2------|----2--------2----0----|------2-------------0--------|
A--------------------------|-------------3---------|----2---2---0-----2---2---0--|
E--------------------------|-----------------------|-0-------------3-------------|

e  e  s s q    e  e  s s q
e-------------------------------|
B-------------------------------|
G-----------0--------------0----|
D-------0h2------------0h4------|
A-3--3-----------5--5-----------|
E-------------------------------|

Main Riff x7 (then three bars of riff and then fill)

Bridge (2nd time) 

  s s s s q    e+ s s e+     e  s s s e+ h             e  s s s s e  e  s s s s e    
e-0------------------------|-------------------------|-----------------------------|
B-----3--------------------|-------------------------|-----------------------------|
G---------4-----------4----|-2----0h2h0--------------|----------0-------------0----|
D---2---2------2--0h2------|----2--------2-----------|------2-------------0--------|
A--------------------------|-------------3-----------|----2---2---0-----2---2---0--|
E--------------------------|-------------------------|-0-------------3-------------|

  e  e  s s q    e  e  s s q
e-------------------------------|
B-------------------------------|
G-----------0--------------0----|
D-------0h2------------0h4------|
A-3--3-----------5--5-----------|
E-------------------------------|

  s s s s q    e+ s s e+     e  s s s e+ h             e  s s s s e  e  s s s s e   
e-0------------------------|-------------------------|-----------------------------|
B-----3--------------------|-------------------------|-----------------------------|
G---------4-----------4----|-2----0h2h0--------------|----------0-------------0----|
D---2---2------2--0h2------|----2--------2-----------|------2-------------0--------|
A--------------------------|-------------3-----------|----2---2---0-----2---2---0--|
E--------------------------|-------------------------|-0-------------3-------------|

  e  e  s s q    e  e  s s q
e-------------------------------|
B-------------------------------|
G-----------0--------------0----|
D-------0h2------------0h4------|
A-3--3-----------5--5-----------|
E-------------------------------|

Repeat main riff till end of the song            
Submit corrections

↑ Back to top | Tablatures and chords for acoustic guitar and electric guitar, ukulele, drums are parodies/interpretations of the original songs. You may use it for private study, scholarship, research or language learning purposes only