» » »

Kings Of Leon - Mary Tabs

Artists:  A B C D E F G H I J K L M N O P Q R S T U V W X Y Z # 

Mary Tabs

(ver. 1) Click to play this song!
Kings Of Leon
 Rating:
4/5 (4 votes)

 Mary lessons Tabs too difficult? Try these video lessons and learn fast
 
                (Intro)
Kings of Leon - Mary
Come Around Sundown

Bass intro on regular guitar
e|---------------------------------------------------------------|
B|---------------------------------------------------------------|
G|---------------------------------------------------------------|
D|---------/9-----6----4----6------------------------------------|
A|--------------------------------2------------------------------|
E|---------------------------------------------------------------|

chord progression for all verses of B barre chord for 8 beats, then an E chord for 4
beats and a F# chord for 4 beats. this then repeats for all verses.

e|----7------------0-------------2----------------------------------|
B|----7------------0-------------2----------------------------------|
G|----8------------1-------------3----------------------------------|
D|----9------------2-------------4----------------------------------|
A|----9------------2-------------4----------------------------------|
E|----7------------0-------------2----------------------------------|

  ^^^^^^^^^     ^^^^^^^^^     ^^^^^^^^^^
   B chord       E chord       F# chord


Pre-chorus:
Chord progression is Ebm for 8 beats then to B barre chord for 4 beats
Then back to Ebm for another 8 beats then to an F# chord.

Ebm- 6 6 8 8 7 6

This is repeated for all pre-choruses

Finally there is the solo, go to Hbwold's version of the solo on this site its the best
tab I have seen for this particular solo anywhere on the internet: 





| /  slide up
| \  slide down
| h  hammer-on
| p  pull-off
| ~  vibrato
| +  harmonic
| x  Mute note
            
Submit corrections


        Mary lessons Hard to play? Try these video lessons and learn fast Mary lessons
        
↑ Back to top | Tablatures and chords for acoustic guitar and electric guitar, ukulele, drums are parodies/interpretations of the original songs. You may use it for private study, scholarship, research or language learning purposes only