» » »

Kings Of Leon - Manhattan Tabs

Artists:  A B C D E F G H I J K L M N O P Q R S T U V W X Y Z # 

Manhattan Tabs

(ver. 1) Click to play this song!
Kings Of Leon
 Rating:
4/5 (4 votes)

 Manhattan lessons Tabs too difficult? Try these video lessons and learn fast
 
                -------------------------------------------------------------------------------
-------------------------------------------------------------------------------

Tuning:standard

e|-----------------------------------------------------------------------------|
B|-----------------------------------------------------------------------------|
G|-----------------------------------------------------------------------------|
D|--77-/-9--9--9-----------9-9--/--10- 10- 10----------------------------------|
A|--99-/-11-11--11---x2----11-11-/-12- 12- 12---x2-----------------------------|repeat
E|--00-/--0--0--0----------0--0--/--0---0---0----------------------------------|

this is the rythm guitar, they basically use the same tabbing as arizona but in a different order.

e|--7-----9---------------------------7--------9-------------------------------|
B|----------------7------9------5--------------------9-------7-------5---------|
G|-----------------------------------------------------------------------------|
D|-----------------------------------------------------------------------------|
A|-----------------------------------------------------------------------------|
E|-----------------------------------------------------------------------------|
this little bit is also played halfway through the song i think, but i dont know who plays it

| /  slide up
| \  slide down
| h  hammer-on
| p  pull-off
| ~  vibrato
| +  harmonic
| x  Mute note
===============================================================================
            
Submit corrections


        Manhattan lessons Hard to play? Try these video lessons and learn fast Manhattan lessons
        
↑ Back to top | Tablatures and chords for acoustic guitar and electric guitar, ukulele, drums are parodies/interpretations of the original songs. You may use it for private study, scholarship, research or language learning purposes only