» » »

Kings Of Leon - Joe's Head Bass

Artists:  A B C D E F G H I J K L M N O P Q R S T U V W X Y Z # 

Joe's Head Bass

(ver. 1) Click to play this song!
Kings Of Leon
 Rating:
4/5 (4 votes)

 Joe's Head lessons Tabs too difficult? Try these video lessons and learn fast
 
                Band – Kings Of Leon
Song – Joe’s Head
Album – Youth and Young Manhood

Standard Tuning EADG

Main Riff
G|-------------------------/11-/11-9|
D|-------/11-14-11------------------|
A|-7-----------------14-------------|
E|----------------------------------|

G|-------------------------11-9-----|
D|-------/11-14-11--------------11--|
A|-7-----------------14-------------|
E|----------------------------------|

Bridge 1

G|----------|
D|----------|
A|--3-----3-|
E|----------|

Chorus

G|------------------------------------------------------|
D|------------------------------------------------------|
A|-----------------------4-4-4-4-4-4-4-4-2-2-2-2-2-2-2-2|
E|-0-0-0-0-0-0-0-0-0------------------------------------|

Bridge 2

G|---------|
D|---------|
A|-2-------|
E|---------|

main riff
Bridge
Bridge 1
Chorus
Bridge 2
Main riff
Bridge 1
Main riff
Chorus
Bridge 2
            
Submit corrections


        Joe's Head lessons Hard to play? Try these video lessons and learn fast Joe's Head lessons
        
↑ Back to top | Tablatures and chords for acoustic guitar and electric guitar, ukulele, drums are parodies/interpretations of the original songs. You may use it for private study, scholarship, research or language learning purposes only