» » »

Kings Of Leon - Immortals Bass

Artists:  A B C D E F G H I J K L M N O P Q R S T U V W X Y Z # 

Immortals Bass

(ver. 1) Click to play this song!
Kings Of Leon
 Rating:
4/5 (4 votes)

 Immortals lessons Tabs too difficult? Try these video lessons and learn fast
 
                -------------------------------------------------------------------------------
			     IMMORTALS - Kings of Leon
-------------------------------------------------------------------------------


Tuning: Standard

Verse:
G|---------------------------------------------------------------------------|
D|---------------------------------------------------------------------------|
A|-----11-11-7-7-/14-14------------------------------------------------------|
E|-9-9-----------------------------------------------------------------------|

Chorus:
G|---------------------------------------------------------------------------|
D|---------------------------------------------------------------------------|
A|---------------------------------------------------------------------------|
E|-0-0-0-0-0-0-0-0-0-0-0-0-0-0-0-0-4-4-4-4-4-4-4-4-5-5-5-5-5-5-5-5-----------|

The above line only happens once at the start of each chorus, then it switches over to 
one below.

G|---16-18---14-16---13-14---11-13---9-11------------------------------------|
D|---------------------------------------------------------------------------|
A|---------------------------------------------------------------------------|
E|-0-------0-------0-------0-------0------0-4-4-4-4-4-4-4-4-5-5-5-5-5-5-5-5--|

This is all just 8th notes, so the timing is easy if you keep a consistent pattern.

Post-Chorus
G|---------------------------------------------------------------------------|
D|------------------------------------11---9---------------------------------|
A|------------------11-11-----11.11------------------------------------------|
E|-9-9----999-/12-9-----------------9----7-----------------------------------|

The dot is there to differentiate between 4 1's and 2 11's, because it is actually two 
notes leading into the
next measure.

| /  slide up
| \  slide down
| h  hammer-on
| p  pull-off
| ~  vibrato
| +  harmonic
| x  Mute note
===============================================================================
            
Submit corrections


        Immortals lessons Hard to play? Try these video lessons and learn fast Immortals lessons
        
↑ Back to top | Tablatures and chords for acoustic guitar and electric guitar, ukulele, drums are parodies/interpretations of the original songs. You may use it for private study, scholarship, research or language learning purposes only