» » »

Kings Of Leon - Four Kicks Tabs

Artists:  A B C D E F G H I J K L M N O P Q R S T U V W X Y Z # 

Four Kicks Tabs

(ver. 3) Click to play this song!
Kings Of Leon
 Rating:
4/5 (4 votes)

 Four Kicks lessons Tabs too difficult? Try these video lessons and learn fast
 
                Another Wicked Song By Kings Of Leon

Intro

E|-------------------------------------------| x2
B|-------------------------------------------|
G|-------------------------------------------|
D|-5-5-7-5--5-5-7-5--5-5-7-5--12121212121212-|  Riff 1
A|-5-5-7-5--5-5-7-5--5-5-7-5--12121212121212-|
E|-0-3-5-3--0-3-5-3--0-3-5-3--10101010101010-|

Verse (After Each Line)

E|------------------| x4
B|------------------|
G|------------------|
D|-5-5-7-5--5-5-7-5-|   Riff 2
A|-5-5-7-5--5-5-7-5-|
E|-0-3-5-3--0-3-5-3-|

Chorus (Strum Chord at Beginning of every line)

E|------------------------------------| x1
B|------------------------------------|
G|------------------------------------|
D|-8----------8----------3----------8-|
A|-8----------8----------3----------8-|
E|-6----------6----------1----------6-|

Riff 1

E|-------------------------------------------| x2
B|-------------------------------------------|
G|-------------------------------------------|
D|-5-5-7-5--5-5-7-5--5-5-7-5--12121212121212-|  Riff 1
A|-5-5-7-5--5-5-7-5--5-5-7-5--12121212121212-|
E|-0-3-5-3--0-3-5-3--0-3-5-3--10101010101010-|

Verse (After Each Line)

E|------------------| x4
B|------------------|
G|------------------|
D|-5-5-7-5--5-5-7-5-|   Riff 2
A|-5-5-7-5--5-5-7-5-|
E|-0-3-5-3--0-3-5-3-|

Chorus (Strum Chord at Beginning of every line)

E|------------------------------------| x1
B|------------------------------------|
G|------------------------------------|
D|-8----------8----------3----------8-|
A|-8----------8----------3----------8-|
E|-6----------6----------1----------6-|

Riff 1

E|-------------------------------------------| x2
B|-------------------------------------------|
G|-------------------------------------------|
D|-5-5-7-5--5-5-7-5--5-5-7-5--12121212121212-|  Riff 1
A|-5-5-7-5--5-5-7-5--5-5-7-5--12121212121212-|
E|-0-3-5-3--0-3-5-3--0-3-5-3--10101010101010-|

Solo (Very Fast)

E|-------------------------------------------------------------|
B|------------------3b--8-10-8-10-8-10-8-10-8-10b-8-10---------|
G|-0-2b-0-2b-0-2b-0--------------------------------------------|
D|-------------------------------------------------------------|
A|-------------------------------------------------------------|
E|-------------------------------------------------------------|

 --------------------------15-12—12----------------------------|
 --15-12-15-12-15-12-15-12------15—15-12----12-----------------|
 ----------------------------------------14----14-12-14b-12-14-|
 --------------------------------------------------------------|
 --------------------------------------------------------------|
 --------------------------------------------------------------|

Chorus (Strum Chord at Beginning of every line)

E|------------------------------------| x1
B|------------------------------------|
G|------------------------------------|
D|-8----------8----------3----------8-|
A|-8----------8----------3----------8-|
E|-6----------6----------1----------6-|

Have Fun!!!
            
Submit corrections


        Four Kicks lessons Hard to play? Try these video lessons and learn fast Four Kicks lessons
        
↑ Back to top | Tablatures and chords for acoustic guitar and electric guitar, ukulele, drums are parodies/interpretations of the original songs. You may use it for private study, scholarship, research or language learning purposes only