» » »

Kings Of Leon - Cold Desert Tabs

Artists:  A B C D E F G H I J K L M N O P Q R S T U V W X Y Z # 

Cold Desert Tabs

(ver. 2) Click to play this song!
Kings Of Leon
 Rating:
4/5 (4 votes)

 Cold Desert lessons Tabs too difficult? Try these video lessons and learn fast
 
                ----------------------------------------------------------------------------
                             COLD DESERT - Kings Of Leon
----------------------------------------------------------------------------

Tuning: Standard

Caleb - Rhythm guitar
Matthew - Lead guitar

You should be able to figure out the rhythm of the guitars by yourselves. Feel free to 
any questions.

Bass intro

Guitar intro

Caleb
e|-------------------------------------------------------------------------|
B|-------------------------------------------------------------------------|
G|-------------------------------------------------------------------------|
D|-------------------------------------------------------------------------|
A|-------------------------------------------------------------------------|
E|-10-------7-------5--------3---------------------------------------------|

Matthew
e|-------------------------------------------------------------------------|
B|-------------------------------------------------------------------------|
G|-7--------6-------2--------12-11-7-12-11-4-2-7---------------------------|
D|-------------------------------------------------------------------------|
A|-------------------------------------------------------------------------|
E|-------------------------------------------------------------------------|

Verse

Im on a corner/Told me he loved me/I never cried...
Caleb
   D        Bm      A        G
e|-------------------------------------------------------------------------|
B|-------------------------------------------------------------------------|
G|-------------------------------------------------------------------------|
D|-12-------9-------7--------5---------------------------------------------|
A|-12-------9-------7--------5---------------------------------------------|
E|-10-------7-------5--------3---------------------------------------------|

Matthew
e|-------------------------------------------------------------------------|
B|-------------------------------------------------------------------------|
G|-7--------6---4---2--------0---------------------------------------------|
D|-------------------------------------------------------------------------|
A|-------------------------------------------------------------------------|
E|-------------------------------------------------------------------------|

Its cold in the desert/ Everyone noticed/jesus don't love me
Caleb
e|-------------------------------------------------------------------------|
B|-------------------------------------------------------------------------|
G|-------------------------------------------------------------------------|
D|-12-------9-------7--------5---------------------------------------------|
A|-12-------9-------7--------5---------------------------------------------|
E|-10-------7-------5--------3---------------------------------------------|

Matthew
e|-------------------------------------------------------------------------|
B|-------------------------------------------------------------------------|
G|-7--------6---4---2--------12-11-7-12-11-4-2-7---------------------------|
D|-------------------------------------------------------------------------|
A|-------------------------------------------------------------------------|
E|-------------------------------------------------------------------------|


Bridge between verses uses same patterns as the verse

Solo


Caleb
e|-------------------------------------------------------------------------|
B|-------------------------------------------------------------------------|
G|-------------------------------------------------------------------------|
D|-12-------9-------7--------5---------------------------------------------|
A|-12-------9-------7--------5---------------------------------------------|
E|-10-------7-------5--------3---------------------------------------------|

Matthew
e|-------------------------------------------------------------------------|
B|-----------------------------------/17b19---17b19-15---------------------|
G|-/16--16--\7---16--\6----16--\4------------------------------------------|
D|-------------------------------------------------------------------------|
A|-------------------------------------------------------------------------|
E|-------------------------------------------------------------------------|


Caleb
e|-------------------------------------------------------------------------|
B|-15(x12)-15-17-12(x12)-12-10----15(x12)-15-17-12(x12)-12-10--------------|
G|-------------------------------------------------------------------------|
D|-------------------------------------------------------------------------|
A|-------------------------------------------------------------------------|
E|-------------------------------------------------------------------------|


Matthew
e|-------------------------------------------------------------------------|
B|-------------------------------------------------------------------------|
G|-7--------------6------4--------2-------------12-11-7-12-11-4-2-7--------|
D|-------------------------------------------------------------------------|
A|-------------------------------------------------------------------------|
E|-------------------------------------------------------------------------|

Caleb
e|-------------------------------------------------------------------------|
B|-15(x12)-15-17-12(x12)-12-10----15(x12)-15-17-12(x12)-12-10--------------|
G|-------------------------------------------------------------------------|
D|-------------------------------------------------------------------------|
A|-------------------------------------------------------------------------|
E|-------------------------------------------------------------------------|


Matthew
e|-------------------------------------------------------------------------|
B|-------------------------------------------------------------------------|
G|-7--------------6------4--------2~---------------------------------------|
D|-------------------------------------------------------------------------|
A|-------------------------------------------------------------------------|
E|-------------------------------------------------------------------------|


After the silence, play the same as the bridges between verses.

Outro

Caleb
e|-------------------------------------------------------------------------|
B|-------------------------------------------------------------------------|
G|-------------------------------------------------------------------------|
D|-------------------------------------------------------------------------|
A|--5--5--5-5-5-5-7--2-2-2-2-2-2-2-0-/5-5--5-5-5-5-7-2--2--2-2-2-2-2-0-/5~-|
E|-------------------------------------------------------------------------|


| /  slide up
| \  slide down
| h  hammer-on
| b  bend to note
| p  pull-off
| ~  vibrato
| +  harmonic
| x  Mute note
            
Submit corrections


        Cold Desert lessons Hard to play? Try these video lessons and learn fast Cold Desert lessons
        
↑ Back to top | Tablatures and chords for acoustic guitar and electric guitar, ukulele, drums are parodies/interpretations of the original songs. You may use it for private study, scholarship, research or language learning purposes only