» » »

Kings Of Leon - California Waiting Tabs

Artists:  A B C D E F G H I J K L M N O P Q R S T U V W X Y Z # 

California Waiting Tabs

(ver. 3) Click to play this song!
Kings Of Leon
 Rating:
4/5 (4 votes)

 California Waiting lessons Tabs too difficult? Try these video lessons and learn fast
 
                Beginning

E-----------------------------------------------------------------------------------
B-----------------------------------------------------------------------------------
G-----------------------------------------------------------------------------------
D----------------------4--------------------------4------------------------------4--
A---7--5------7--5--7-----7----7--5-----7--5--7------7-----7---5-------7---5--7-----
E---------7--------------------------5-----------------------------7----------------

Beginning (cont.)

E-------------------------------------------------------------------------
B-------------------------------------------------------------------------
G-------------------------------------------------------------------------
D-------------------------------------------------------------------------
A-7---7--5----------------------------------------------------------------
E------------5------------------------------------------------------------


The chorus and 2nd verse is just G and D.

     G     D
E----3-----2----------
B----0-----3----------
G----0-----2----------
D----0-----0----------
A----2-----x----------
E----3-----x----------


And one little part during the 2nd verse that you play twice
E--------------------
B--------------------
G--------------------
D-----4---7----------
A--5---------5-------
E--------------------
You can figure out the strumming to the choruses and verses, Peace.
            
Submit corrections


        California Waiting lessons Hard to play? Try these video lessons and learn fast California Waiting lessons
        
↑ Back to top | Tablatures and chords for acoustic guitar and electric guitar, ukulele, drums are parodies/interpretations of the original songs. You may use it for private study, scholarship, research or language learning purposes only