» » »

Justin Bieber - Love Yourself Tabs

Artists:  A B C D E F G H I J K L M N O P Q R S T U V W X Y Z # 

Love Yourself Tabs

(ver. 3) Click to play this song!
Justin Bieber
 Rating:
4.3/5 (13 votes)

 Love Yourself lessons Tabs too difficult? Try these video lessons and learn fast
 
                          *                *                    *                       *
e|--------4----|-----4---------4----|--------4--5-|---5--4-----------4----|
B|---5--7------|--------7--7-----5--|5----7-------|---------7--5--7-----7-|
G|-------------|--------------------|-------------|-----------------------|
D|-------------|--------------------|-------------|-----------------------|
A|-------------|--------------------|-------------|-----------------------|
E|-------------|--------------------|-------------|-----------------------|
          *                         *                                  *
e|--------4----|--7-----------4--------|-----4--5-|--5--4-----------4----|
B|---5--7------|-----7--5--7-----7--5--|--7-------|--------7--5--7-----7-|
G|-------------|-----------------------|----------|----------------------|
D|-------------|-----------------------|----------|----------------------|
A|-------------|-----------------------|----------|----------------------|
E|-------------|-----------------------|----------|----------------------|
                         *
e|---------------|-4--7--4---4-H7--7--5-|-5-H4--4--------------4---|----4--------4----|
B|----------5-H7-|----------------------|----------5--5--5--7----5-|-7-----5--7-----5-|
G|-4--4-H6-------|----------------------|--------------------------|------------------|
D|---------------|----------------------|--------------------------|------------------|
A|---------------|----------------------|--------------------------|------------------|
E|---------------|----------------------|--------------------------|------------------|

e|----4----------------|-4--7--4--4-H7--7--5-|-5--4--------------4----|----4--------4----|
B|-7--------------5-H7-|---------------------|-------5--5--5--7-----5-|-7-----5--7-----5-|
G|-------4--4-H6-------|---------------------|------------------------|------------------|
D|---------------------|---------------------|------------------------|------------------|
A|---------------------|---------------------|------------------------|------------------|
E|---------------------|---------------------|------------------------|------------------|
                                           *                                      *
e|----4------------4-|-4---------------------|-----------4-|-4--------------------4-|
B|-7-----5--5--5-----|----5--5--7--7-7-5-5-5-|--5--5--5----|----5--5--7--7--7--6----|
G|-------------------|-----------------------|-------------|------------------------|
D|-------------------|-----------------------|-------------|------------------------|
A|-------------------|-----------------------|-------------|------------------------|
E|-------------------|-----------------------|-------------|------------------------|

e|----7--5--4-|----------4--4-------|-4--5--4---------------7-|-7-----7--7--7-|
B|-5----------|-5--5--5--------5--7-|----------7--7--5--5-----|---------------|
G|------------|---------------------|-------------------------|---------------|
D|------------|---------------------|-------------------------|---------------|
A|------------|---------------------|-------------------------|---------------|
E|------------|---------------------|-------------------------|---------------|

e|-7--5--5--4-------------|-4--4--------|-4--4-------------|-4----4-------------|
B|-------------7--5--5--4-|--------7--5-|-------7--5--5--7-|----5----5--7--5--5-|
G|------------------------|-------------|------------------|--------------------|
D|------------------------|-------------|------------------|--------------------|
A|------------------------|-------------|------------------|--------------------|
E|------------------------|-------------|------------------|--------------------|

e|-------------4-|-4--4-------|-4--4-------------|-4-----4-------------|
B|-------5--5----|-------7--5-|-------7--5--5--7-|----5-----5--7--5--5-|
G|---------------|------------|------------------|---------------------|
D|---------------|------------|------------------|---------------------|
A|---------------|------------|------------------|---------------------|
E|---------------|------------|------------------|---------------------|

Repeat from the top again all the way down to here then do the bit below

e|-----7--4--7-|-4------------7--4--7-|-4--------4--7--4--7-|-4--------5--4-------|
B|-------------|----7--5--5-----------|----7--5-------------|----7--5--------7--5-|
G|-------------|----------------------|---------------------|---------------------|
D|-------------|----------------------|---------------------|---------------------|
A|-------------|----------------------|---------------------|---------------------|
E|-------------|----------------------|---------------------|---------------------|

e|----7--4--7-|-4-----------7--4--7--|-4--------4--7--4--7-|-4---------5--4--------|
B|-5----------|----7--5--5-----------|----7--5-------------|----7--5----------7--5-|
G|------------|----------------------|---------------------|-----------------------|
D|------------|----------------------|---------------------|-----------------------|
A|------------|----------------------|---------------------|-----------------------|
E|------------|----------------------|---------------------|-----------------------|

e|----------4--|-4--4--------|-4--4-------------|-4-----4-------------|
B|-5--5--5------|-------7--5-|-------7--5--5--7-|----5-----5--7--5--5-|
G|-------------|-------------|------------------|---------------------|
D|-------------|-------------|------------------|---------------------|
A|-------------|-------------|------------------|---------------------|
E|-------------|-------------|------------------|---------------------|

e|------------4-|-4--4-------|-4--4-------------|-4----4-------------|
B|------5--5----|-------7--5-|-------7--5--5--7-|----5----5--7--5--5-|
G|--------------|------------|------------------|--------------------|
D|--------------|------------|------------------|--------------------|
A|--------------|------------|------------------|--------------------|
E|--------------|------------|------------------|--------------------|
            
Submit corrections


        Love Yourself lessons Hard to play? Try these video lessons and learn fast Love Yourself lessons
        
↑ Back to top | Tablatures and chords for acoustic guitar and electric guitar, ukulele, drums are parodies/interpretations of the original songs. You may use it for private study, scholarship, research or language learning purposes only