» » »

Justin Bieber - Love Yourself Ukulele

Artists:  A B C D E F G H I J K L M N O P Q R S T U V W X Y Z # 

Love Yourself Ukulele

(ver. 1) Click to play this song!
Justin Bieber
 Rating:
4.3/5 (6 votes)

 Love Yourself  lessons Tabs too difficult? Try these video lessons and learn fast
 
                [Verse 1]

A|----------------------------------------------------------------|
E|-2h4---4-x-------2-----2-x-------0-----1-x---------------x------|
C|-4-------x-------3-------x-------1-------x---------------x------|
g|----------------------------------------------------------------|

A|----------------------------------------------------------------|
E|-5-----5-x-------4-----4-x-------2-----2-x---------------x------|
C|-6-------x-------4-------x-------3-------x---------------x------|
g|----------------------------------------------------------------|

REPEAT 4 TIMES

[Pre-Chorus]

A|-4-----4-x---4-----------x-------2-----2-x---2-----------x------|
E|-4-----4-x---5-----------x-------4-----4-x---4-----------x------|
C|-4-----4-x---4-----------x-------4-----4-x---4-----------x------|
g|----------------------------------------------------------------|

A|-4-----4-x---4-----------x-------2-----2-x---2-----------x------|
E|-4-----4-x---5-----------x-------4-----4-x---4-----------x------|
C|-4-----4-x---4-----------x-------4-----4-x---4-----------x------|
g|----------------------------------------------------------------|

A|-4-----4-x---4-----------x-------2-----2-x---2-----------x------|
E|-4-----4-x---5-----------x-------4-----4-x---2-----------x------|
C|-4-----4-x---4-----------x-------4-----4-x---3-----------x------|
g|----------------------------------------------------------------|

A|-4-----4-x---4-----------x-------2---2---2---2---2-------x------|
E|-4-----4-x---5-----------x-------2---2---2---2---2-------x------|
C|-4-----4-x---4-----------x-------3---3---3---3---3-------x------|
g|----------------------------------------------------------------|

[Chorus]

A|-2-------x-----------2---x-------4-------x-----------4---x------|
E|-4-------x-----------2---x-------4-------x-----------5---x------|
C|-4-------x-----------3---x-------4-------x-----------4---x------|
g|----------------------------------------------------------------|

A|-2-------x-----------2---x-------2-------x---------------x------|
E|-4-------x-----------2---x-------4-------x---------------x------|
C|-4-------x-----------3---x-------4-------x---------------x------|
g|----------------------------------------------------------------|

A|-2-------x-----------2---x-------4-------x-----------4---x------|
E|-4-------x-----------2---x-------4-------x-----------5---x------|
C|-4-------x-----------3---x-------4-------x-----------4---x------|
g|----------------------------------------------------------------|

A|-2-------x-----------2---x-------2-------x---------------x------|
E|-4-------x-----------2---x-------4-------x---------------x------|
C|-4-------x-----------3---x-------4-------x---------------x------|
g|----------------------------------------------------------------|

[Verse]

A|----------------------------------------------------------------|
E|-2h4---4-x-------2-----2-x-------0-----1-x---------------x------|
C|-4-------x-------3-------x-------1-------x---------------x------|
g|----------------------------------------------------------------|

A|----------------------------------------------------------------|
E|-5-----5-x-------4-----4-x-------2-----2-x---------------x------|
C|-6-------x-------4-------x-------3-------x---------------x------|
g|----------------------------------------------------------------|

REPEAT 4 TIMES

[Pre-Chorus]

A|-4-----4-x---4-----------x-------2-----2-x---2-----------x------|
E|-4-----4-x---5-----------x-------4-----4-x---4-----------x------|
C|-4-----4-x---4-----------x-------4-----4-x---4-----------x------|
g|----------------------------------------------------------------|

A|-4-----4-x---4-----------x-------2-----2-x---2-----------x------|
E|-4-----4-x---5-----------x-------4-----4-x---4-----------x------|
C|-4-----4-x---4-----------x-------4-----4-x---4-----------x------|
g|----------------------------------------------------------------|

A|-4-----4-x---4-----------x-------2-----2-x---2-----------x------|
E|-4-----4-x---5-----------x-------4-----4-x---2-----------x------|
C|-4-----4-x---4-----------x-------4-----4-x---3-----------x------|
g|----------------------------------------------------------------|

A|-4-----4-x---4-----------x-------2---2---2---2---2-------x------|
E|-4-----4-x---5-----------x-------2---2---2---2---2-------x------|
C|-4-----4-x---4-----------x-------3---3---3---3---3-------x------|
g|----------------------------------------------------------------|

[Chorus]

A|-2-------x-----------2---x-------4-------x-----------4---x------|
E|-4-------x-----------2---x-------4-------x-----------5---x------|
C|-4-------x-----------3---x-------4-------x-----------4---x------|
g|----------------------------------------------------------------|

A|-2-------x-----------2---x-------2-------x---------------x------|
E|-4-------x-----------2---x-------4-------x---------------x------|
C|-4-------x-----------3---x-------4-------x---------------x------|
g|----------------------------------------------------------------|

A|-2-------x-----------2---x-------4-------x-----------4---x------|
E|-4-------x-----------2---x-------4-------x-----------5---x------|
C|-4-------x-----------3---x-------4-------x-----------4---x------|
g|----------------------------------------------------------------|

A|-2-------x-----------2---x-------2-------x---------------x------|
E|-4-------x-----------2---x-------4-------x---------------x------|
C|-4-------x-----------3---x-------4-------x---------------x------|
g|----------------------------------------------------------------|

[Interlude]

A|-2-------x-----------2---x-------4-------x-----------4---x------|
E|-4-------x-----------2---x-------4-------x-----------5---x------|
C|-4-------x-----------3---x-------4-------x-----------4---x------|
g|----------------------------------------------------------------|

A|-2-------x-----------2---x-------2-------x---------------x------|
E|-4-------x-----------2---x-------4-------x---------------x------|
C|-4-------x-----------3---x-------4-------x---------------x------|
g|----------------------------------------------------------------|

A|-2-------x-----------2---x-------4-------x-----------4---x------|
E|-4-------x-----------2---x-------4-------x-----------5---x------|
C|-4-------x-----------3---x-------4-------x-----------4---x------|
g|----------------------------------------------------------------|

A|-2-------x-----------2---x-------2-------x---------------x------|
E|-4-------x-----------2---x-------4-------x---------------x------|
C|-4-------x-----------3---x-------4-------x---------------x------|
g|----------------------------------------------------------------|

[Verse]

A|----------------------------------------------------------------|
E|-2h4---4-x-------2-----2-x-------0-----1-x---------------x------|
C|-4-------x-------3-------x-------1-------x---------------x------|
g|----------------------------------------------------------------|

A|----------------------------------------------------------------|
E|-5-----5-x-------4-----4-x-------2-----2-x---------------x------|
C|-6-------x-------4-------x-------3-------x---------------x------|
g|----------------------------------------------------------------|

REPEAT 2 TIMES


[Chorus]

A|-2-------x-----------2---x-------4-------x-----------4---x------|
E|-4-------x-----------2---x-------4-------x-----------5---x------|
C|-4-------x-----------3---x-------4-------x-----------4---x------|
g|----------------------------------------------------------------|

A|-2-------x-----------2---x-------2-------x---------------x------|
E|-4-------x-----------2---x-------4-------x---------------x------|
C|-4-------x-----------3---x-------4-------x---------------x------|
g|----------------------------------------------------------------|

A|-2-------x-----------2---x-------4-------x-----------4---x------|
E|-4-------x-----------2---x-------4-------x-----------5---x------|
C|-4-------x-----------3---x-------4-------x-----------4---x------|
g|----------------------------------------------------------------|

A|-2-------x-----------2---x-------2-------x---------------x------|
E|-4-------x-----------2---x-------4-------x---------------x------|
C|-4-------x-----------3---x-------4-------x---------------x------|
g|----------------------------------------------------------------|

[Chorus]

A|-2-------x-----------2---x-------4-------x-----------4---x------|
E|-4-------x-----------2---x-------4-------x-----------5---x------|
C|-4-------x-----------3---x-------4-------x-----------4---x------|
g|----------------------------------------------------------------|

A|-2-------x-----------2---x-------2-------x---------------x------|
E|-4-------x-----------2---x-------4-------x---------------x------|
C|-4-------x-----------3---x-------4-------x---------------x------|
g|----------------------------------------------------------------|

A|-2-------x-----------2---x-------4-------x-----------4---x------|
E|-4-------x-----------2---x-------4-------x-----------5---x------|
C|-4-------x-----------3---x-------4-------x-----------4---x------|
g|----------------------------------------------------------------|

A|-2-------x-----------2---x-------2-------x----------------------|
E|-4-------x-----------2---x-------4-------x----------------------|
C|-4-------x-----------3---x-------4-------x----------------------|
g|----------------------------------------------------------------|
            
Submit corrections


        Love Yourself  lessons Hard to play? Try these video lessons and learn fast Love Yourself  lessons
        
↑ Back to top | Tablatures and chords for acoustic guitar and electric guitar, ukulele, drums are parodies/interpretations of the original songs. You may use it for private study, scholarship, research or language learning purposes only