» » »

Justin Bieber - Love Yourself Bass

Artists:  A B C D E F G H I J K L M N O P Q R S T U V W X Y Z # 

Love Yourself Bass

(ver. 1) Click to play this song!
Justin Bieber
 Rating:
4.3/5 (24 votes)

 Love Yourself  lessons Tabs too difficult? Try these video lessons and learn fast
 
                
VERSE

G|---------------------------------------------------------------------------|
D|-----6---4-----------7---6---4-4-----6---4-----------7---6---4-4------------ repeat 2x (until pre-chorus
A|-------------7-7-----------------------------7-7---------------------------|
E|---------------------------------------------------------------------------|

PRE CHORUS
"my mama don't like you and she likes everyone and I never like to admit that I was wrong"
G|---------------------------------------------------------------------------|
D|-----6---4-----------6---4-------------------------------------------------|
A|-------------7-7-------------7-7-------------------------------------------|
E|---------------------------------------------------------------------------|

"I've been so caught up in my job, didn't see what going on but now I know I'm better sleeping on my own"

G|------------------4-------------4444---------------------------------------|
D|-----6---4--------------6---4----------------------------------------------|
A|-------------7-------------------------------------------------------------|
E|---------------------------------------------------------------------------|

CHORUS

G|---------------------------------------------------------------------------|
D|----6---4-----------6---4--------------------------------------------------|repeat 2x
A|------------7---------------7----------------------------------------------|
E|----------------5----------------------------------------------------------|


SOLO

G|---------------------------------------------------------------------------|
D|---------------------------------------------------------------------------|repeat 2x
A|----14-11-14-11-9-7-7-14-11-14-11-9-7-11-14-11-14-11-9-7-12-11-9-7-7-------|
E|---------------------------------------------------------------------------|



            
Submit corrections


        Love Yourself  lessons Hard to play? Try these video lessons and learn fast Love Yourself  lessons
        
↑ Back to top | Tablatures and chords for acoustic guitar and electric guitar, ukulele, drums are parodies/interpretations of the original songs. You may use it for private study, scholarship, research or language learning purposes only