» » »

Justin Bieber - Sorry Tabs

Artists:  A B C D E F G H I J K L M N O P Q R S T U V W X Y Z # 

Sorry Tabs

(ver. 1) Click to play this song!
Justin Bieber
 Rating:
1/5 (2 votes)

 Sorry  lessons Tabs too difficult? Try these video lessons and learn fast
 
                Tuning:F Bb Eb G Eb g

[Verse] (Palm mute)
g |------------------|---------------------|
Eb|------------------|---------------------|
G |------------------|---------------------|
Eb|-5--5--5--9--9--9-|-7--7--7-7--7--7--7--|
Bb|-5--5--5--9--9--9-|-7--7--7-7--7--7--7--|
F |-3--3--3--7--7--7-|-5--5--5-5--5--5--5--|


[Chorus]
g |-0--------0-------|-0-------0-----------|
Eb|-0--------0-------|-0-------0-----------|
G |-0--------0-------|-0-------0-----------|
Eb|-5--------9-------|-7-------7-----------|
Bb|-5--------9-------|-7-------7-----------|
F |-3--------7-------|-5-------5-----------| x3

g |-0-0-0-0-0-0-0-0-|----------------------|
Eb|-0-0-0-0-0-0-0-0-|----------------------|
G |-1-1-1-1-1-1-1-1-|----------------------|
Eb|-2-2-2-2-2-2-2-2-|-5-5-5-5-7-7-7--------|
Bb|-2-2-2-2-2-2-2-2-|-5-5-5-5-7-7-7--------|
F |-0-0-0-0-0-0-0-0-|-3-3-3-3-5-5-5--------|            
Submit corrections


        Sorry  lessons Hard to play? Try these video lessons and learn fast Sorry  lessons
        
↑ Back to top | Tablatures and chords for acoustic guitar and electric guitar, ukulele, drums are parodies/interpretations of the original songs. You may use it for private study, scholarship, research or language learning purposes only